PrimaNota.ru - самый крупный в мире бесплатный архив песенных текстов, аккордов, табулатур и нот


Cradle Of Filth - Hallowed Be Thy Name - аккорды и текст, таба, видео

Регистрация Запомнить меня
Войти через:  Facebook Google Twitter Vk Yandex Mail.ru

Cradle Of Filth - Hallowed Be Thy Name - аккорды и текст, таба, видео

Печатать
Просмотров: 230
Авторы музыки: Steve Harris
Авторы текста: Steve Harris
Hallowed Be Thy Name
Cradle Of Filth
Intro-Clean  x10
---------------------------------------------------------|
---------------------------------------------------------|
-14-12-10-9h10p9-7-9---14-12-10-9h10p9-7-6---------------|
---------------------------------------------------------|
---------------------------------------------------------|
---------------------------------------------------------|


Riff 1-Distortion  x1
----------------------------------------------------------------------------------------|
----------------------------------------------------------------------------------------|
-14-12-10-9h10p9-7-9---14-12-10-9h10p9-7-6---14-12-10-9h10p9-7-9--10h12p10h12p10h12p10--|
----------------------------------------------------------------------------------------|
----------------------------------------------------------------------------------------|
----------------------------------------------------------------------------------------|

-----------------------------------------------------------------------------|
-----------------------------------------------------------------------------|
-14-12-10-9h10p9-7-9---14-12-10-9h10p9-7-6---14-12-10-9h10p9-7-9-------------|
-----------------------------------------------------------------------------|
-----------------------------------------------------------------------------|
-----------------------------------------------------------------------------|


Riff 2-Distortion  x8
---------------------------------|
---------------------------------|
---------------------------------|
-----------5-----5-7-------------|
-5-8-7---8-----8-------8-7-8-7-5-|
---------------------------------|


Riff 3-Distortion  x2
-----------------------------------------------------------------|
-----------------------------------------------------------------|
-----------------------------------------------------------------|
-7---------------------------------------------------------------|
-5-----------------------------7-8-----------------------------5-|
-------------------------------5-6-----------------------------3-|
 1 e + a 2 e + a 3 e + a 4 e + a 1 e + a 2 e + a 3 e + a 4 e + a

-----------------------------------------------------------------|
-----------------------------------------------------------------|
-----------------------------------------------------------------|
---------------------------------7-------------------------------|
-10----------------------------7-5-------7-------8---5h7-8p7p5---|
-8-----------------------------5---------5-------6---------------|
 1 e + a 2 e + a 3 e + a 4 e + a 1 e + a 2 e + a 3 e + a 4 e + a


Riff 4-Distortion  x2
-----------------------------------------------------------------|
-----------------------------------------------------------------|
-----------------------------------------------------------------|
-7---x-x-7---x-x-7---x-x-7---------------------------------------|
-5---x-x-5---x-x-5---x-x-5---x-x-8---x-x-8---x-x-8---x-x-8---x-x-|
-----------------------------x-x-6---x-x-6---x-x-6---x-x-6---x-x-|
 1       2       3       4       1       2       3       4

---------------------------------------------------------|
---------------------------------------------------------|
---------------------------------------------------------|
---------------------------------7-----------------------|
-10--x-x-10--x-x-10--x-x-10--x-x-5---7---8---5h7-8p7p5---|
-8---x-x-8---x-x-8---x-x-8---x-x-----5---6---------------|
 1       2       3       4       1


Riff 2-Distortion  x8
---------------------------------|
---------------------------------|
---------------------------------|
-----------5-----5-7-------------|
-5-8-7---8-----8-------8-7-8-7-5-|
---------------------------------|


Riff 5-Distortion  x4
------------------------------------------------|
------------------------------------------------|
------------------------------------------------|
-------7-----------7-----------7----------------|
-5-7h8---8p7-5-7h8---8p7-5-7h8---8p7------------|
------------------------------------------------|


Riff 6-Distortion  x2
-----------------------------------------------------------------------------|
-----------------------------------------------------------------------------|
-------5-----------5-----------5-------------7-----------5-----------5-------|
---5h7---7p5---5h7---7p5---5h7---7-5-----5h7---7-5---5h7---7-5---5h7---7-5---|
-8-----------8-----------8-------------8-----------8-----------8-----------8-|
-----------------------------------------------------------------------------|


Riff 7-Distortion  x4
-----------------------------------------------------------------|
-----------------------------------------------------------------|
-----------------------------------------------------------------|
-7---x-x-7---x-x-7---x-x-7---------------------------------------|
-5---x-x-5---x-x-5---x-x-5---x-x-8---x-x-8---x-x-8---x-x-8---x-x-|
-----------------------------x-x-6---x-x-6---x-x-6---x-x-6---x-x-|
 1       2       3       4       1       2       3       4


---------------------------------------------------------------|
---------------------------------------------------------------|
---------------------------------------------------------------|
-----------------------------x-x-7---x-x-7---x-x-3p2p0—--3p2p0-|
-10--x-x-10--x-x-10--x-x-10--x-x-5---x-x-5---x-x---------------|
-8---x-x-8---x-x-8---x-x-8-------------------------------------|
 1       2       3       4       1       2       3       4


Riff 5-Distortion  x4
------------------------------------------------|
------------------------------------------------|
------------------------------------------------|
-------7-----------7-----------7----------------|
-5-7h8---8p7-5-7h8---8p7-5-7h8---8p7------------|
------------------------------------------------|


Riff 8-Clean  x16
---5-----|
-----5-6-|
-7-------|
---------|
---------|
---------|

Keyboard Part 4 Measures

Riff 9-Distortion  x6 (under solos . . . which I can't get)
-------------------------------------------------------------------------|
-------------------------------------------------------------------------|
-77777777777777777777----------------55555555555555555555----------------|
-77777777777777777777-3p2p0---3p2p0--55555555555555555555-3p2p0---3p2p0--|
-55555555555555555555----------------33333333333333333333----------------|
-------------------------------------------------------------------------|
1   2   3   4   1   2                1   2   3   4   1  2
Don't worry about getting the power chords perfect . . . just have fun and JAM!


Riff 10-Distortion  x3
---------------------------------------------------------|
---------------------------------------------------------|
---7-77-77-77--*5*--7-77-77-77---1010------1010----------|
---7-77-77-77--*5*--7-77-77-77---1010-1010-1010-101010---|
---5-55-55-55--*3*--5-55-55-55---8-8—-1010-8-8--101010---|
---------------------------------8-8-------8-8--8--------|
*only play after first time*

Riff 10.1-Distortion  x1
-------------------------------|
-------------------------------|
---7-77-77-77--5--7-77-77-77---|
---7-77-77-77--5--7-77-77-77---|
---5-55-55-55--3--5-55-55-55---|
-------------------------------|

Riff 2-Distortion  x11
---------------------------------|
---------------------------------|
---------------------------------|
-----------5-----5-7-------------|
-5-8-7---8-----8-------8-7-8-7-5-|
---------------------------------|


Riff 11-Distortion  x1
---------------------------|
---------------------------|
-7-------------------------|
-7-7-8---------------------|
-5-7-8----5h7/8-10p8-7/5---|
---5-6---------------------|

Riff 2-Distortion  x3

Riff 11-Distortion  x1

Riff 12-Distortion  x1 (you can figure out a strumming pattern, but here's the chords)
------------------------------------------------------------|
------------------------------------------------------------|
-77777777777------------------------------------77777777777-|
-77777777777-88888888888-1010101010101010101010-77777777777-|
-55555555555-88888888888-1010101010101010101010-55555555555-|
-------------66666666666-8-8-8-8-8-8-8-8-8-8-8--------------|
Each chord lasts one measure

------------------------------------------------|
------------------------------------------------|
-77777777777------------------------------------|
-77777777777-88888888888-1010101010101010101010-|
-55555555555-88888888888-1010101010101010101010-|
-------------66666666666-8-8-8-8-8-8-8-8-8-8-8—-|


Riff 8-Distortion  x16
---5-----|
-----5-6-|
-7-------|
---------|
---------|
---------|
Then keep using that riff but speed up and slow down


Ending-Distortion  x1
----------------|
----------------|
--7777---7777--|
--7777---7777--|
--5555---5555--|
----------------|
Добавлено: 21.06.2012
Другие материалы по этой песне:

Страница создана 28.02.2012
http://primanota.ru/cradle-of-filth/hallowed-be-thy-name-chords.htm
Привет, Гость.
Предлагаем пройти революционный курс по гитаре.
Подарок от PrimaNota.Ru, забирай!