PrimaNota.ru - самый крупный в мире бесплатный архив песенных текстов, аккордов, табулатур и нот


Cradle Of Filth - Death The Great Adventure - таба, видео

Регистрация Запомнить меня
Войти через:  Facebook Google Twitter Vk Yandex Mail.ru

Cradle Of Filth - Death The Great Adventure - таба, видео

Печатать
Просмотров: 136
CRADLE OF FILTH

DEATH,THE GREAT ADVENTURE


DGCFAD


TABBED BYandherembrace


---------------------------------------------------------------------|
---------------------------------------------------------------------|
---------------------------------------------------------------------|
--------4-3----4--------------------------4-3----4----------7-6--6-4-|
-4-3----2-1----2--4--4-4--7--6--4--4-3----2-1----2--4--4-4--x-x--x-x-|
-2-1----2-1----2--2--2-2--5--4--2--2-1----2-1----2--2--2-2--5-4--4-2-|


--------------------------------------------------------------------|
--------------------------------------------------------------------|
--------------------------------------------------------------------|
--------4-3----4--------------------------4-3----4------------------|
-4-3----2-1----2--4--4-4--7--6--4--4-3----2-1----2--4--4-4--7--6--7-|
-2-1----2-1----2--2--2-2--5--4--2--2-1----2-1----2--2--2-2--5--4--5-|



0:57
-----------------------------------------------------------------------|
-----------------------------------------------------------------------|
-----------------------------------------------------------------------|
99999999999999999999-1212121212121212-8888888888888888-4444333344443333|
99999999999999999999-1212121212121212-8888888888888888-4444333344443333|
77777777777777777777-1010101010101010-6666666666666666-2222111122221111|

----------------------------------------------------------------------|
----------------------------------------------------------------------|
----------------------------------------------------------------------|
99999999999999999999-1212121212121212-8888888888888888--4-3--4-3-4-3--|
99999999999999999999-1212121212121212-8888888888888888--4-3--4-1-4-3--|
77777777777777777777-1010101010101010-6666666666666666--2-1--2-1-2-1--|

-----------------------------------------------------------------------|
-----------------------------------------------------------------------|
-----------------------------------------------------------------------|
99999999999999999999-1212121212121212-8888888888888888-4444333344443333|
99999999999999999999-1212121212121212-8888888888888888-4444333344443333|
77777777777777777777-1010101010101010-6666666666666666-2222111122221111|

----------------------------------------------------------------------|
----------------------------------------------------------------------|
----------------------------------------------------------------------|
99999999999999999999-1212121212121212-8888888888888888--4-3--4-3-4-3--|
99999999999999999999-1212121212121212-8888888888888888--4-3--4-1-4-3--|
77777777777777777777-1010101010101010-6666666666666666--2-1--2-1-2-1--|



1:17
--------------------------------------------------------|
--------------------------------------------------------|
--------------------------------------------------------|
--------------------------------------------------------|
-9-9--9--9-9-9-9-9--9--9-9-9-9-9--9--9-9-9--4-3-44-3----|
-7-7--7--7-7-7-7-7--7--7-7-7-7-7--7--7-7-7--2-1-22-1----|
 * *  *  * * * * *  *  * * * * *  *  * * *      **

------------------------------------------------------------------|
------------------------------------------------------------------|
------------------------------------------------------------------|
------------------------------------------------------------------|
-222222222222322222222222322232223222222232223222-----------------|
--------------------------------------------------2-2-111-2-2-111-|
                                                  * * *** * * ***

--------------------------------------------------------|
--------------------------------------------------------|
--------------------------------------------------------|
--------------------------------------------------------|
-9-9--9--9-9-9-9-9--9--9-9-9-9-9--9--9-9-9--4-3-44-3----|
-7-7--7--7-7-7-7-7--7--7-7-7-7-7--7--7-7-7--2-1-22-1----|
 * *  *  * * * * *  *  * * * * *  *  * * *      **

-------------------------------------------------------------|
-------------------------------------------------------------|
-------------------------------------------------------------|
-------------------------------------------------------5-2---|
-222222222222322222222222322232223222222232223222-4----3-0---|
--------------------------------------------------2-11-------|
                                                    ** 


1:37

L
--------------------------------------------------------------|
--------------------------------------------------------------|
-------------------------------------------------------_------|
-/7----/10----9-10-7----/10-9-------------------------/ \-----|
------------------------------10---/12-10-5----7-8-7-5-7-5-3--|
--------------------------------------------------------------|
R
--------------------------------------------------------------|
--------------------------------------------------------------|
-------------------------------------------------------_------|
------------------------------------------------------/ \-----|
-------8-----7-8-7-------5-7-3------5-3-2------3-5-3-2-3-2----|
-5---------------------------------------------------------3--|


L
--------------------------------------------------------------|
--------------------------------------------------------------|
-------------------------------------------------------_------|
-/7----/10----9-10-7----/10-9-------------------------/ \-----|
------------------------------10---/12-10-5----7-8-7-5-7-5-3--|
--------------------------------------------------------------|
R
--------------------------------------------------------------|
--------------------------------------------------------------|
-------------------------------------------------------_------|
------------------------------------------------------/ \-----|
-------8-----7-8-7-------5-7-3------5-3-2------3-5-3-2-3-2----|
-5---------------------------------------------------------3--|


---------------------|
---------------------|
---------------------|
---------------------|
-7----6----3---5-6-2-|
-5-55-4-44-1-1-3/4-0-|
   **   **   *


1:59
------------------------------------------------------------|
------------------------------------------------------------|
------------------------------------------------------------|
-7-------6-3----------6-7---------6-------------------------|
-5-------4-1----------4-5---------4-7--7-7-3--2--3--5-6-3---|
-5-------4-1----------4-5---------4-5--5-5-1--0--1--3-4-1---|


----------------------------------------------------|
----------------------------------------------------|
----------------------------------------------------|
-7-------6-3----------6-7---------6-----------------|
-5-------4-1----------4-5---------4-7--7-7-3--2--3--|
-5-------4-1----------4-5---------4-5--5-5-1--0--1--|



2:19

---------------------------------------------|
---------------------------------------------|
---------------------------------------------|
--^---^---^--^---^--^--^---^---^--^---^--^---|
-8-0-5-0-8-0-50-80-50-8-0-5-0-8-0-50-80-50---|
---------------------------------------------|

---------------------------------------------|
---------------------------------------------|
---------------------------------------------|
--^---^---^--^---^--^--^---^---^--^---^--^---|
-8-0-5-0-8-0-50-80-50-8-0-5-0-8-0-50-80-50---|
---------------------------------------------|

---------------------------------------------|
---------------------------------------------|
---------------------------------------------|
--^---^---^--^---^--^--^---^---^--^---^--^---|
-8-0-3-0-8-0-50-80-50-7-0-3-0-7-0-30-70-30---|
---------------------------------------------|

---------------------------------------------|
---------------------------------------------|
---------------------------------------------|
--^---^---^--^---^--^--^---^---^--^---^--^---|
-5-0-2-0-5-0-20-50-20-5-0-2-0-5-0-20-50-20---|
---------------------------------------------|



---------------------------------------------|
---------------------------------------------|
---------------------------------------------|
--^---^---^--^---^--^--^---^---^--^---^--^---|
-8-0-5-0-8-0-50-80-50-8-0-5-0-8-0-50-80-50---|
---------------------------------------------|

---------------------------------------------|
---------------------------------------------|
---------------------------------------------|
--^---^---^--^---^--^--^---^---^--^---^--^---|
-8-0-5-0-8-0-50-80-50-8-0-5-0-8-0-50-80-50---|
---------------------------------------------|

---------------------------------------------|
---------------------------------------------|
---------------------------------------------|
--^---^---^--^---^--^--^---^---^--^---^--^---|
-8-0-3-0-8-0-50-80-50-7-0-3-0-7-0-30-70-30---|
---------------------------------------------|

---------------------------------------------|
---------------------------------------------|
---------------------------------------------|
--^---^---^--^---^--^--^---^---^--^---^--^---|
-5-0-2-0-5-0-20-50-20-5-0-2-0-5-0-20-50-20---|
---------------------------------------------|



2:39
---------------------------------------------------------------------|
---------------------------------------------------------------------|
---------------------------------------------------------------------|
--------4-3----4--------------------------4-3----4----------7-6--6-4-|
-4-3----2-1----2--4--4-4--7--6--4--4-3----2-1----2--4--4-4--x-x--x-x-|
-2-1----2-1----2--2--2-2--5--4--2--2-1----2-1----2--2--2-2--5-4--4-2-|


--------------------------------------------------------------------|
--------------------------------------------------------------------|
--------------------------------------------------------------------|
--------4-3----4--------------------------4-3----4------------------|
-4-3----2-1----2--4--4-4--7--6--4--4-3----2-1----2--4--4-4--7--6--7-|
-2-1----2-1----2--2--2-2--5--4--2--2-1----2-1----2--2--2-2--5--4--5-|



2:59
-----------------------------------------------------------------------|
-----------------------------------------------------------------------|
-----------------------------------------------------------------------|
99999999999999999999-1212121212121212-8888888888888888-4444333344443333|
99999999999999999999-1212121212121212-8888888888888888-4444333344443333|
77777777777777777777-1010101010101010-6666666666666666-2222111122221111|

----------------------------------------------------------------------|
----------------------------------------------------------------------|
----------------------------------------------------------------------|
99999999999999999999-1212121212121212-8888888888888888--4-3--4-3-4-3--|
99999999999999999999-1212121212121212-8888888888888888--4-3--4-1-4-3--|
77777777777777777777-1010101010101010-6666666666666666--2-1--2-1-2-1--|

-----------------------------------------------------------------------|
-----------------------------------------------------------------------|
-----------------------------------------------------------------------|
99999999999999999999-1212121212121212-8888888888888888-4444333344443333|
99999999999999999999-1212121212121212-8888888888888888-4444333344443333|
77777777777777777777-1010101010101010-6666666666666666-2222111122221111|

----------------------------------------------------------------------|
----------------------------------------------------------------------|
----------------------------------------------------------------------|
99999999999999999999-1212121212121212-8888888888888888--4-3--4-3-4-3--|
99999999999999999999-1212121212121212-8888888888888888--4-3--4-1-4-3--|
77777777777777777777-1010101010101010-6666666666666666--2-1--2-1-2-1--|


-----------|
-----------|
-----------|
-----------|
-7--6--7---|
-5--4--5---|


3:21
--------------------------------------------------------|
--------------------------------------------------------|
--------------------------------------------------------|
--------------------------------------------------------|
-9-9--9--9-9-9-9-9--9--9-9-9-9-9--9--9-9-9--4-3-44-3----|
-7-7--7--7-7-7-7-7--7--7-7-7-7-7--7--7-7-7--2-1-22-1----|
 * *  *  * * * * *  *  * * * * *  *  * * *      **

------------------------------------------------------------------|
------------------------------------------------------------------|
------------------------------------------------------------------|
------------------------------------------------------------------|
-222222222222322222222222322232223222222232223222-----------------|
--------------------------------------------------2-2-111-2-2-111-|
                                                  * * *** * * ***

--------------------------------------------------------|
--------------------------------------------------------|
--------------------------------------------------------|
--------------------------------------------------------|
-9-9--9--9-9-9-9-9--9--9-9-9-9-9--9--9-9-9--4-3-44-3----|
-7-7--7--7-7-7-7-7--7--7-7-7-7-7--7--7-7-7--2-1-22-1----|
 * *  *  * * * * *  *  * * * * *  *  * * *      **

-------------------------------------------------------------|
-------------------------------------------------------------|
-------------------------------------------------------------|
-------------------------------------------------------5-2---|
-222222222222322222222222322232223222222232223222-4----3-0---|
--------------------------------------------------2-11-------|
                                                    ** 


3:41

L
--------------------------------------------------------------|
--------------------------------------------------------------|
-------------------------------------------------------_------|
-/7----/10----9-10-7----/10-9-------------------------/ \-----|
------------------------------10---/12-10-5----7-8-7-5-7-5-3--|
--------------------------------------------------------------|
R
--------------------------------------------------------------|
--------------------------------------------------------------|
-------------------------------------------------------_------|
------------------------------------------------------/ \-----|
-------8-----7-8-7-------5-7-3------5-3-2------3-5-3-2-3-2----|
-5---------------------------------------------------------3--|


L
--------------------------------------------------------------|
--------------------------------------------------------------|
-------------------------------------------------------_------|
-/7----/10----9-10-7----/10-9-------------------------/ \-----|
------------------------------10---/12-10-5----7-8-7-5-7-5-3--|
--------------------------------------------------------------|
R
--------------------------------------------------------------|
--------------------------------------------------------------|
-------------------------------------------------------_------|
------------------------------------------------------/ \-----|
-------8-----7-8-7-------5-7-3------5-3-2------3-5-3-2-3-2----|
-5---------------------------------------------------------3--|

---------------------|
---------------------|
---------------------|
---------------------|
-7----6----3---5-6-2-|
-5-55-4-44-1-1-3/4-0-|
   **   **   *


4:03

------------------------------------------------------------|
------------------------------------------------------------|
------------------------------------------------------------|
-7-------6-3----------6-7---------6-------------------------|
-5-------4-1----------4-5---------4-7--7-7-3--2--3--5-6-3---|
-5-------4-1----------4-5---------4-5--5-5-1--0--1--3-4-1---|


----------------------------------------------------|
----------------------------------------------------|
----------------------------------------------------|
-7-------6-3----------6-7---------6-----------------|
-5-------4-1----------4-5---------4-7--7-7-3--2--3--|
-5-------4-1----------4-5---------4-5--5-5-1--0--1--|




5:01

---------------------------------------------|
---------------------------------------------|
---------------------------------------------|
--^---^---^--^---^--^--^---^---^--^---^--^---|
-8-0-5-0-8-0-50-80-50-8-0-5-0-8-0-50-80-50---|
---------------------------------------------|

---------------------------------------------|
---------------------------------------------|
---------------------------------------------|
--^---^---^--^---^--^--^---^---^--^---^--^---|
-8-0-5-0-8-0-50-80-50-8-0-5-0-8-0-50-80-50---|
---------------------------------------------|

---------------------------------------------|
---------------------------------------------|
---------------------------------------------|
--^---^---^--^---^--^--^---^---^--^---^--^---|
-8-0-3-0-8-0-50-80-50-7-0-3-0-7-0-30-70-30---|
---------------------------------------------|

---------------------------------------------|
---------------------------------------------|
---------------------------------------------|
--^---^---^--^---^--^--^---^---^--^---^--^---|
-5-0-2-0-5-0-20-50-20-5-0-2-0-5-0-20-50-20---|
---------------------------------------------|



---------------------------------------------|
---------------------------------------------|
---------------------------------------------|
--^---^---^--^---^--^--^---^---^--^---^--^---|
-8-0-5-0-8-0-50-80-50-8-0-5-0-8-0-50-80-50---|
---------------------------------------------|

---------------------------------------------|
---------------------------------------------|
---------------------------------------------|
--^---^---^--^---^--^--^---^---^--^---^--^---|
-8-0-5-0-8-0-50-80-50-8-0-5-0-8-0-50-80-50---|
---------------------------------------------|

---------------------------------------------|
---------------------------------------------|
---------------------------------------------|
--^---^---^--^---^--^--^---^---^--^---^--^---|
-8-0-3-0-8-0-50-80-50-7-0-3-0-7-0-30-70-30---|
---------------------------------------------|

---------------------------------------------|
---------------------------------------------|
---------------------------------------------|
--^---^---^--^---^--^--^---^---^--^---^--^---|
-5-0-2-0-5-0-20-50-20-5-0-2-0-5-0-20-50-20---|
---------------------------------------------|


5:22
--------------------------------------------------------|
--------------------------------------------------------|
--------------------------------------------------------|
--------------------------------------------------------|
-9-9--9--9-9-9-9-9--9--9-9-9-9-9--9--9-9-9--4-3-44-3----|
-7-7--7--7-7-7-7-7--7--7-7-7-7-7--7--7-7-7--2-1-22-1----|
 * *  *  * * * * *  *  * * * * *  *  * * *      **

------------------------------------------------------------------|
------------------------------------------------------------------|
------------------------------------------------------------------|
------------------------------------------------------------------|
-222222222222322222222222322232223222222232223222-----------------|
--------------------------------------------------2-2-111-2-2-111-|
                                                  * * *** * * ***
--------------------------------------------------------|
--------------------------------------------------------|
--------------------------------------------------------|
--------------------------------------------------------|
-9-9--9--9-9-9-9-9--9--9-9-9-9-9--9--9-9-9--4-3-44-3----|
-7-7--7--7-7-7-7-7--7--7-7-7-7-7--7--7-7-7--2-1-22-1----|
 * *  *  * * * * *  *  * * * * *  *  * * *      **

------------------------------------------------------------------|
------------------------------------------------------------------|
------------------------------------------------------------------|
------------------------------------------------------------------|
-222222222222322222222222322232223222222232223222-----------------|
--------------------------------------------------2-2-111-2-2-111-|
                                                  * * *** * * ***


5:41
-----------------------------------------------------------------------|
-----------------------------------------------------------------------|
-----------------------------------------------------------------------|
99999999999999999999-1212121212121212-8888888888888888-4444333344443333|
99999999999999999999-1212121212121212-8888888888888888-4444333344443333|
77777777777777777777-1010101010101010-6666666666666666-2222111122221111|

----------------------------------------------------------------------|
----------------------------------------------------------------------|
----------------------------------------------------------------------|
99999999999999999999-1212121212121212-8888888888888888--4-3--4-3-4-3--|
99999999999999999999-1212121212121212-8888888888888888--4-3--4-1-4-3--|
77777777777777777777-1010101010101010-6666666666666666--2-1--2-1-2-1--|

-----------------------------------------------------------------------|
-----------------------------------------------------------------------|
-----------------------------------------------------------------------|
99999999999999999999-1212121212121212-8888888888888888-4444333344443333|
99999999999999999999-1212121212121212-8888888888888888-4444333344443333|
77777777777777777777-1010101010101010-6666666666666666-2222111122221111|

----------------------------------------------------------------------|
----------------------------------------------------------------------|
----------------------------------------------------------------------|
99999999999999999999-1212121212121212-8888888888888888--4-3--4-3-4-3--|
99999999999999999999-1212121212121212-8888888888888888--4-3--4-1-4-3--|
77777777777777777777-1010101010101010-6666666666666666--2-1--2-1-2-1--|
Добавлено: 20.07.2013
Другие материалы по этой песне:
  • Аккорды и текст

Страница создана 20.07.2013
http://primanota.ru/cradle-of-filth/death-the-great-adventure-chords.htm
Привет, Гость.
Предлагаем пройти революционный курс по гитаре.
Подарок от PrimaNota.Ru, забирай!