PrimaNota.ru - самый крупный в мире бесплатный архив песенных текстов, аккордов, табулатур и нот


Cradle Of Filth - cthulu dawn - аккорды и текст, таба, видео

Регистрация Запомнить меня
Войти через:  Facebook Google Twitter Vk Yandex Mail.ru

Cradle Of Filth - cthulu dawn - аккорды и текст, таба, видео

Печатать
Просмотров: 136
Уроки эстрадного вокала в Санкт-Петербурге
cthulu dawn
Cradle Of Filth
		   Cradle of Filth
CTHULU DAWN

Intro


Riff A
|----------------------------------------------------------|
|----------------------------------------------------------|
|----------------------------------------------------------|
|-----------------------------------------------7755557777-|
|--------777788887777------77778888777755555555------------|
|-555555--------------4444---------------------------------|
|
|              2tx
|-----------------|
|-----------------|
|-----------------|
|-----------------|
|-3-3-3-3-6-6-6-6-|
|-1-1-1-1-4-4-4-4-|


Riff B
|------------------------------------------------------------------|
|------------------------------------------------------------------|
|---5-4h5---5-4h5---5-4h5---5-4h5----5-4h5---5-4h5---5-4h5---5-4h5-|
|-7-------7-------7-------7--------6-------6-------6-------6-------|
|------------------------------------------------------------------|
|------------------------------------------------------------------|
|
|                                                                            2tx
|-------------------------------------------------------------------------------|
|---6-5h6---6-5h6---6-5h6---6-5h6-----9-8h9----9-8h9----9-8h9----9-8h9-11p9-8h9-|
|-7-------7-------7-------7--------10--------10-------10------10----------------|
|-------------------------------------------------------------------------------|
|-------------------------------------------------------------------------------|
|-------------------------------------------------------------------------------|


Riff A 2tx


*Riff C                                          4tx
|---------------------------------------------------|
|---------------------------------------------------|
|---------------------------------------------------|
|---------------------------------44444444-77777777-|
|---4---------5\4---4---------5\4-22222222-55555555-|
|-2-2-2-222-2-3\2-2-2-2-222-2-3\2-------------------|
  .   . ... .     .   . ... .


*Play half of Riff C the 4th time and end with a pick slide


Riff D
|----------------------------------------------------|
|----------------------------------------------------|
|----------------------------------------------------|
|----------------------------------77777777777777777-|
|-777777777777777778888888888888888------------------|
|----------------------------------------------------|
|
|
|---------------------------------------------------------|
|---------------------------------------------------------|
|---------------------------------------------------------|
|-10p9-6666666666666666-----------------------------------|
|-----------------------777777777777777778888888888888888-|
|---------------------------------------------------------|
|
|                                          2tx
|---------------------------------------------|
|---------------------------------------------|
|---------------------------------------------|
|---------------------------------------------|
|-11------11------11/12-11------11------11/12-|
|-9--9999-9--9999-9-/10-9--9999-9--9999-9-/10-|
     ....    ....          ....    ....



Guitar rest for 2 bars
Riff B 2tx


Riff E
|---------------------------------------------------------|
|---------------------------------------------------------|
|---------------------------------------------------------|
|-------------------------------7-5--7--------------------|
|-----7--8--7-----7--8--7--5--------------3-3-3-3-6-6-6-6-|
|-5-----------4---------------------------1-1-1-1-4-4-4-4-|
|
|
|---------------------------------------------------------------|
|---------------------------------------------------------------|
|---------------------------------------------------------------|
|------------------------------------7755557777-----------------|
|-----7--8--7-----7--8--7--555555555------------3-3-3-3-6-6-6-6-|
|-5-----------4---------------------------------1-1-1-1-4-4-4-4-|


*Riff C 4tx (4th time end with pick slide and the following riff)


|---------------------------------------------|
|---------------------------------------------|
|---------------------------------------------|
|---------------------------------------------|
|-11------11------11/12-11------11------11/12-|
|-9--9999-9--9999-9-/10-9--9999-9--9999-9-/10-|
     ....    ....          ....    ....


Riff D 2tx


Riff F
|-----------------------------------------|
|-----------------------------------------|
|-----------------------------------------|
|-----------------------------------------|
|-----8p7h8-----8p7h8-----8p7h8-----8p7h8-|
|-000-------000-------000-------000-------|
|
|                                        2tx
|-------------------------------------------|
|-------------------------------------------|
|-------------------------------------------|
|-------------------------------------------|
|-------------------------------------------|
|-8-11p10h11-8-11p10h11-7-10p9h10-7-10p9h10-|


Riff G
|-----------------------------------------|
|-----------------------------------------|
|-----------------------------------------|
|-8p7h8-----8p7h8-----8p7h8-----8p7h8-----|
|-------0-0-------0-0-------0-0-------0-0-|
|-----------------------------------------|
|       . .       . .       . .       . .
|
|---------------------------------------------------|
|---------------------------------------------------|
|---------------------------------------------------|
|-11p10h11-----11p10h11-----11p10h11-----11p10h11---|
|----------0-0----------0-0----------0-0----------0-|
|---------------------------------------------------|
|          . .          . .          . .
|
|-----------------------------------------------------|
|-----------------------------------------------------|
|-----------------------------------------------------|
|-----------------------------------------------------|
|-888-11p10h11-888-11p10h11-888-11p10h11-888-11p10h11-|
|-----------------------------------------------------|
|
|                                      2tx
|-----------------------------------------|
|-----------------------------------------|
|-----------------------------------------|
|-----------------------------------------|
|-----------------------------------------|
|-000-8p7h8-000-8p7h8-000-8p7h8-000-8p7h8-|


Synthesizer (Guitar tacet)
Riff A 2tx


Ending (Very slow)
|-----------------------------------------------------------------------|
|-----------------------------------------------------------------------|
|-----------------------------------------------------------------------|
|-------------------------------------10-8--10--------------------------|
|-----10--11--10-----10--11--10--8-------------6-6-6-6-9-9-9-9-10-(10)--|
|-8--------------7-----------------------------4-4-4-4-7-7-7-7-8--(8)---|

Enjoy!!!!!!     
Добавлено: 24.07.2013
Другие материалы по этой песне:

Страница создана 28.02.2012
http://primanota.ru/cradle-of-filth/cthulu-dawn-chords.htm
Привет, Гость.
Предлагаем пройти революционный курс по гитаре.
Подарок от PrimaNota.Ru, забирай!