PrimaNota.ru - самый крупный в мире бесплатный архив песенных текстов, аккордов, табулатур и нот


Cradle Of Filth - Coffin Fodder - текст песни, таба, бас-таба, видео

Регистрация Запомнить меня
Войти через:  Facebook Google Twitter Vk Yandex Mail.ru

Cradle Of Filth - Coffin Fodder - текст песни, таба, бас-таба, видео

Печатать
Просмотров: 310
Coffin Fodder Solo Tab
Drop C Tuning - CGCFAD
(All of Cradle Of Filths Guitars Are Set To Drop C Tuning)

My Comment:
I've been working on Coffin Fodder for ages, I looked at the other tabs for it on this
and not only don't they finish the whole song nor do they have the solo but they are also
tad incorrect. I'm gonna post the bass tab and guitar tab(with the Solo in it) on here
well because I spent about an entire week, every hour, listening to this song and
it all out, double checking, correcting, everything. This solo took me ages because I
going back over it and it is hard to hear at points. I'm pretty sure its 99% correct.
may be one or two notes wrong,
						    Marc.

Key: (In Order of Appearance)
~	Let it ring (Even if it's only for a short time)
/	Slide
SS	Even though you have slid to this note, you still need to strum the string
P	Pull off
B	Bend it Back and forth a lot!!
*	See bottom comment
b^	Bend this last note on the bottom string as close to the top string as possible.

3:33
|---------------------------------------------------|
|---------------------------------------------------|
|-5~7~--8-7-5~8~--10-8-7~8~/10/12-13p12-12-13P12-12-|
|---------------------------SS-SS-------------------|
|---------------------------------------------------|
|---------------------------------------------------|

 3:41
|-16-15-13~--------------------------------------------------------|
|---------------------------------13-11-9~-11/13-14/13-11/13-11/13-|
|-----------12-13-15-13-12~-12/10----------------------------------|
|------------------------------SS----------------------------------|
|------------------------------------------------------------------|
|------------------------------------------------------------------|

3:49
|----------13---------------------------------------------|
|---------------------------------11/13-14/13-11/13-11/13-|
|-10-12-10-----12-13-12--13-15-13-------------------------|
|---------------------------------------------------------|
|---------------------------------------------------------|
|---------------------------------------------------------|

3:57
|----------13---------------------------------------------|
|---------------------------------11/13-14/13-11/13-11/13-|
|-10-12-10-----12-13-12--13-15-13-------------------------|
|---------------------------------------------------------|
|---------------------------------------------------------|
|---------------------------------------------------------|

4:05
|------------------------------|
|------------------------------|
|------------------------------|
|-15-14-15-14-15~-15-17-17-19B-|
|------------------------------|
|------------------------------|

4:13
|--------------------------22b^*|
|-17-17-17-18~p17-17-17-17------|
|-------------------------------|
|-------------------------------|
|-------------------------------|
|-------------------------------|
*I only have a 22 fret guitar, If you have one with more then this last note should be
because you don't have to play the 22nd fret, you can play it higher. Also, as the key
if you only have a 22 fret guitar then you should bend this last note on the bottom
as close to the top string as possible. If you only have a 22 fret guitar like me then
won't be able to bend it back and forth like they do in the actual song because
it'll go too low, but if you have more frets then you should be able to bend it back and forth.
really shit at doing pinch harmonics but I think you could also substitute a pinch 
in instead of this last note.


Phew, that took me ages. I'm positive about every single note except the very last one.

If you have any questions or comments or tips about this tab, go 2 my myspace:
www.myspace.com/killer_murderdolls
Добавлено: 14.06.2012
Другие материалы по этой песне:

Страница создана 05.03.2012
http://primanota.ru/cradle-of-filth/coffin-fodder-chords.htm
Привет, Гость.
Предлагаем пройти революционный курс по гитаре.
Подарок от PrimaNota.Ru, забирай!