PrimaNota.ru - самый крупный в мире бесплатный архив песенных текстов, аккордов, табулатур и нот


Cradle Of Filth - Bryonic Man - таба, видео

Регистрация Запомнить меня
Войти через:  Facebook Google Twitter Vk Yandex Mail.ru

Cradle Of Filth - Bryonic Man - таба, видео

Печатать
Просмотров: 106
----------------------------------------------------------------------------
		     Cradle of Filth - Byronic Man
----------------------------------------------------------------------------
First Tabbed by:theROCKGOD
Email:jprince1@hotmail.co.uk

Corrected by: CotyXD
E-mail: CotyXD@yahoo.com

Tuning:CGCFAd
or
Tuning:DGCFAd

Introduction
|--------------------------------------------|
|--------------------------------------------|
|--------------------------------------------|
|--------------------------------------------|   3 times
|-9----12----11----9----11----15----12--11/9-|
|-9----12----11----9----11----15----12--11/9-|

|---------------------------------------|
|---------------------------------------|
|---------------------------------------|
|---------------------------------------|   
|-9----12----11----9----11----12--15-14-|
|-9----12----11----9----11----12--15-14-|

Pt2
|---------------------------------------------|
|---------------------------------------------|
|-4--7--6/4--4--7--6/4--6--10--7/6--6---------|
|-4--7--6/4--4--7--6/4--6--10--7/6--6-3--5-6--|     4 times
|-2--5--4/2--2--5--4/2--4--8---5/4--4-3--5-6--|
|-------------------------------------3--5-6--|

pt3 gtr 1
|-------------------------------------------------|
|-------------------------------------------------|
|-4--7-6-4-6-4--7-6-4-6~~~~-10~~~~-13~~~~-16~~~~--|  
|-------------------------------------------------|    2 times
|-------------------------------------------------|
|-------------------------------------------------|
|pt3 gtr 2
|-------------------------------------------------|
|4--10-9-7-9--4-10-9-7-9--------------------------|
|-------------------------------------------------|
|------------------------/11----------------------|    2 time
|----------------------------/11--/8--/5----------|
|-------------------------------------------------|

pt4
|----------------------------------|
|----------------------------------|
|----------------------------------|
|-7-3-0-7-3-0-7-3-0-3-6-0-3-6-3-6--|     2 times
|----------------------------------|
|----------------------------------|

pt5
|---------------------------------|
|---------------------------------|
|---------------------------------|
|-4-444--5-555--4-444--5-5-7-5----|     2 times
|-4-444--5-555--4-444--5-5-7-5----|
|-4-444--5-555--4-444--5-5-7-5----|

Repeat:
pt 3
pt 4
pt 5
pt 3
---------------------------
pt6
|----------------------------------------------------------------------|
|----------------------------------------------------------------------|
|----------------------------------------------------------------------|
|-444444444444-77777777-666-444--666666666666-1010101010101010-777-666-|
|-222222222222-55555555-444-222--444444444444-8-8-8-8-8-8-8-8--555-444-|
|----------------------------------------------------------------------|

Guitar solo. 
|--------------------------------|---------------------------------|
|--------------------------------|---------------------------------|
|--------------------------------|---------------------------------|
|-4-7644-764-04-0-0-46---4----46-|-4-7644-11974-04-0-0-46--4----46-| 2 times
|----------------------4---44----|------------------------4--44----|
|--------------------------------|---------------------------------|
Solo end.
|-------------|
|-------------|
|-------------|
|-------------|
|-5420--------|
|------5420---|

Outro
|----------|
|----------|
|----------|
|-5-7-5-4--|
|-5-7-5-4--|
|-5-7-5-4--|


| /  slide up
| \  slide down
| ~  vibrato

This sounds ok to me.
I think its pritty close to the song.
This is my first tab so go easy xD lol.

ENJOY!!


I corrected a few parts in this. 

-Coty
Добавлено: 28.09.2013
Другие материалы по этой песне:
  • Аккорды и текст

Страница создана 28.09.2013
http://primanota.ru/cradle-of-filth/bryonic-man-chords.htm
Привет, Гость.
Предлагаем пройти революционный курс по гитаре.
Подарок от PrimaNota.Ru, забирай!