PrimaNota.ru - самый крупный в мире бесплатный архив песенных текстов, аккордов, табулатур и нот


Cracker - Surfbilly - таба, видео

Регистрация Запомнить меня
Войти через:  Facebook Google Twitter Vk Yandex Mail.ru

Cracker - Surfbilly - таба, видео

Печатать
Просмотров: 140
Cracker - Surfbilly.
Tabbed by Dimitrios JW4Pres@aol.com.Tab notation
b: bend
r: release
/: slide up
\: slide down
~: vibrato

These first four measures are repeated throughout the entire song
-----------------------|------------------------|-----------------
-----------------------|------------------------|-----------------
-----------------------|------------------------|--9----7---------
--2--4--5--7--5--4--2--|--2--4--5--7--9--10--9--|----------9--7--5
-----------------------|------------------------|-----------------
-----------------------|------------------------|-----------------
                                               
--------------|------------------------------|
--------------|------------------------------|
--------------|------------------------------|
--9--7--5-----|--0-2--4--5--0--2--4--2-------|
-----------7--|-------------------------3--2-|
--------------|------------------------------|

Solo:

------------------------------------------------------------------
-----17-17-17-17~15~-----------------------12-------------------17
-/16----------------16~~----12-14-14-14-14----14-12---------/16---
----------------------------------------------------14~~----------
------------------------------------------------------------------
------------------------------------------------------------------

-----------------------------------------|------------------------
-17-17-17~15-----------------12b13r12~~--|------17-17-17-17-15----
--------------16~~----12--14-------------|--/16----------------16~
-----------------------------------------|------------------------
-----------------------------------------|------------------------
-----------------------------------------|------------------------

------------------------------------------------------------------
-----------------12-----------------------------------------------
--12-14-14-14-14----14-12------------------------11---------------
--------------------------14~~----12-14-14-14-14-----14-12~---12--
------------------------------------------------------------------
------------------------------------------------------------------

-----------------------|
-----------------------| The rhythm part is repeated one more time
-----------------------| and the last measure is repeated with a  
14-/16-14~~--10--10-9--| little twist
-----------------------|
-----------------------|
                                          w/ bar 
                            -------------0~~~----------
                            -------------0~~~----------
                            -------------0~~~----------
                            -------------2~~~----------
                            -3-3-3-2-2-2-2~~~----------
                            -------------0~~~----------
 
 
 



Добавлено: 26.02.2012
Другие материалы по этой песне:
  • Аккорды и текст

Страница создана 26.02.2012
http://primanota.ru/cracker/surfbilly-chords.htm
Привет, Гость.
Предлагаем пройти революционный курс по гитаре.
Подарок от PrimaNota.Ru, забирай!