PrimaNota.ru - самый крупный в мире бесплатный архив песенных текстов, аккордов, табулатур и нот


Cracker - How Can I Live Without You - текст песни, таба, видео

Регистрация Запомнить меня
Войти через:  Facebook Google Twitter Vk Yandex Mail.ru

Cracker - How Can I Live Without You - текст песни, таба, видео

Печатать
Просмотров: 168
-----------------------------------------------------------------?
How Can I Live Without You - Cracker?
-----------------------------------------------------------------?
Tabbed by: Artie the Fly?Email: phordious@gmail.com
Tuning: Standard, capo 1st fret?
	Intro / Verse

e|----------|----------|----------|--------|---------|----------|
B|----------|----------|----------|--------|---------|----------|
G|--------0-|--0-3b4-0-|--0-3b4-0-|--0---0-|--------0|-0--3b4-0-|
D|--2----2--|----------|----------|3---2---|--2----2-|--2-------|
A|----0h2---|3---------|----------|--------|----0h2--|3--3------|
E|0---------|----------|3--3-----3|---3----|0--------|----------|
   
e|----------|--------|---------|----------|----------|--------|
B|----------|--------|---------|----------|----------|--------|
G|--0-3b4-0-|--0---0-|--------0|-0--3b4-0-|--0-3b4-0-|--0---0-|
D|----------|3---2---|--2----2-|--2-------|----------|3---2---|
A|----------|--------|----0h2--|3--3------|----------|--------|
E|3--3-----3|---3----|0--------|----------|3--3-----3|---3----|


	Intro ending

e|------|-----------|1------1|------1-|
B|------|1p0--------|1--1----|1---1-1-|
G|2-----|---2p0-2-0-|2--2h3--|3p2-2-2-|
D|2-----|-----------|3--3----|3---3-3-|
A|0-----|-----------|3-------|--------|
E|------|-----------|1-------|--------|


	First verse ending

e|------|-----------|--1---1-|---1--|------|
B|------|1p0--------|---1---1|---1--|1--1--|
G|2-----|---2p0-2-0-|2---3---|2--2--|0--0--|
D|2-----|-----------|3-------|---3--|2--2--|
A|0-----|-----------|--------|---3--|3--3--|
E|------|-----------|1-------|---1--|------|


	Chorus
					
e|-1-1-|-----|-3-3-|-2-2-|
B|-1-1-|-1-1-|-0-0-|-3-3-|
G|-2-2-|-0-0-|-0-0-|-2-2-|  Repeat
D|-3-3-|-2-2-|-0-0-|-0-0-|    4X
A|-3-3-|-3-3-|-2-2-|-----|
E|-1-1-|-----|-3-3-|-----|


	Solo
	
e|----------|-----------|--------------|-----------|-------| 
B|----------|-----------|--------------|-----------|-------| 
G|---9---9--|-----------|7p9-7---------|-----------|---9-7-| 
D|7h9-7h9--9|7\5---5----|5-----7b8b7p5-|-5-7b8-5-7-|--9-9--| 
A|----------|---7p5--7p5|-------------5|7-----7---5|7------| 
E|----------|-----------|--------------|-----------|-------| 

e|---------|--------|----------|----------|-----------| 
B|---------|--------|----------|----------|-------8---| 
G|5-5------|--------|----------|----------|--9-7-9-9-7| 
D|---7b8-5-|5-5-5-3-|----------|-------9-7|9----------| 
A|--------7|--------|-5p4p3----|-7-5-7----|-----------| 
E|---------|--------|------6-3-|----------|-----------| 

e|-----10----------|----------|--------|---------------|
B|10/12--12-10\8---|8-10b12-8-|10-12---|13p12p10--10---|
G|--------------9-7|-7--------|------12|--------12--12-|
D|-----------------|----------|--------|---------------|
A|-----------------|----------|--------|---------------|
E|-----------------|----------|--------|---------------|

e|--------------|---------|
B|10-10h11p10h11|10-------|
G|10-10---------|10-------|
D|--------------|---------|
A|--------------|---------|
E|--------------|---------|

| /  slide up
| \  slide down
| h  hammer-on
| p  pull-off
| ~  vibrato
| +  harmonic
| x  Mute note

Добавлено: 08.05.2012
Другие материалы по этой песне:
  • Аккорды и текст

Страница создана 06.04.2012
http://primanota.ru/cracker/how-can-i-live-without-you-chords.htm
Привет, Гость.
Предлагаем пройти революционный курс по гитаре.
Подарок от PrimaNota.Ru, забирай!