PrimaNota.ru - самый крупный в мире бесплатный архив песенных текстов, аккордов, табулатур и нот


Cracker - Dr Bernice - текст песни, таба, видео

Регистрация Запомнить меня
Войти через:  Facebook Google Twitter Vk Yandex Mail.ru

Cracker - Dr Bernice - текст песни, таба, видео

Печатать
Просмотров: 145
DRBERNIC.TAB

--------------------------------------------------------------------

  Dr. Bernice--Cracker
  This is the guitar part for the verse, its got a 3/4 waltz feel.
       Dm             A                       back to Dm
e:---------------------------------------------------------------------------|
B:---3-3-----3-3-----2-2-----2-2-----2-2-----2-2-----3-3-----3-3-------------|
G:---2-2-----2-2-----2-2-----2-2-----2-2-----2-2-----2-2-----2-2-------------|
D:0---------------2---------------2---------------0--------------------------|
A:--------0---------------0---------------0---------------0------------------|
E:---------------------------------------------------------------------------|

  This is the verse--repeat 2x
      F       C      F       A       Dm      A       Dm
e:--------------------------------------------------------------|
B:---1-1-----1-1-----1-1-----2-2-----3-3-----2-2-----3-3-----3-3|
G:---2-2-----0-0-----2-2-----2-2-----2-2-----2-2-----2-2-----2-2|
D:3---------------3---------------0---------------0-------------|
A:--------3---------------0---------------0---------------0-----|
E:--------------------------------------------------------------|

If anyone wants the slide guitar (solo and such), I can probably figure
it out (I had in the past, but forgot it), email me at:
trebor@alpha2.csd.uwm.edu

Transcribed by Robert W Kubiak II  8)
Добавлено: 28.03.2012
Другие материалы по этой песне:
  • Аккорды и текст

Страница создана 28.03.2012
http://primanota.ru/cracker/dr-bernice-chords.htm
Привет, Гость.
Предлагаем пройти революционный курс по гитаре.
Подарок от PrimaNota.Ru, забирай!