PrimaNota.ru - самый крупный в мире бесплатный архив песенных текстов, аккордов, табулатур и нот


Crack The Sky - Ice - текст песни, таба, видео

Регистрация Запомнить меня
Войти через:  Facebook Google Twitter Vk Yandex Mail.ru

Crack The Sky - Ice - текст песни, таба, видео

Печатать
Просмотров: 172
		   >
>Song:          Ice
>Words & Music: John Palumbo
>Artist:        Crack The Sky
>Album:         Crack The Sky (Lifesong Records LS-6000, 1975)
>Transcription: From the ear of Allen Black (allenblack@comcast.net)
>Commentary:    Anyone in the Baltimore area who is interested in starting a
>                  band playing some CTS covers (for fun, not fame or fortune),
>                  let me know (i.e. - e-mail me at: allenblack@comcast.net).
>
>
>ICE
>Crack The Sky
>
>
>BASIC RHYTHM RIFF:
>(triplet feel)
>    Aadd9 A7add9 Aadd9 A7add9 Aadd9 A7add9 Aadd9   Aadd9
>E --0-0-0-0-0-0--0-0-0-0-0-0--0-0-0-0-0-0--0-------0------------
B --0-0-0-0-0-0--0-0-0-0-0-0--0-0-0-0-0-0--0-------0- (or just
>G --2-2-2-0-0-0--2-2-2-0-0-0--2-2-2-0-0-0--2-------2-  continue
>D --2-2-2-2-2-2--2-2-2-2-2-2--2-2-2-2-2-2--2-------2-  triplets)
>A --0-0-0-0-0-0--0-0-0-0-0-0--0-0-0-0-0-0--0-------0------------
>E --------------------------------------------------------------
>
>    F#m   F#m7   F#m   F#m7   F#m   F#m7   F#m     F#m
>E --2-2-2-2-2-2--2-2-2-2-2-2--2-2-2-2-2-2--2-------2------------
>B --2-2-2-2-2-2--2-2-2-2-2-2--2-2-2-2-2-2--2-------2- (or just
>G --2-2-2-2-2-2--2-2-2-2-2-2--2-2-2-2-2-2--2-------2-  continue
>D --4-4-4-2-2-2--4-4-4-2-2-2--4-4-4-2-2-2--4-------4-  triplets)
>A --4-4-4-4-4-4--4-4-4-4-4-4--4-4-4-4-4-4--4-------4------------
>E --2-2-2-2-2-2--2-2-2-2-2-2--2-2-2-2-2-2--2-------2------------
>
>BASIC LEAD RIFF:
>    Aadd9/A7add9              F#m/F#m7
>E ----------------------------------------------2--4--5--7--9-12
>B ----------------------------------------2--5------------------
>G --4----4-2-0-------4--2-----------2--4------------------------
>D -------------4-2-0-------4--2--4------------------------------
>A --------------------------------------------------------------
>E --------------------------------------------------------------
>
>CHORUS END RIFF:
>                                          F#m   F#m7
>E ----------------------------------------2-2-2-2-2-2-----------
>B ----------------------------------------2-2-2-2-2-2- (repeat
>G ----------------------4-4-4-0-0-0---2---2-2-2-2-2-2-- F#m/m7
>D --------4-4-4-0-0-0---------------------4-4-4-2-2-2-- 3 times)
>A --0-0-0---------------------------------4-4-4-4-4-4-----------
>E ----------------------------------------2-2-2-2-2-2-----------
>
>
>INTRO: Basic Riffs
>
>VERSE 1: Basic Rhythm Riff
>Aadd9/A7add9 Rhythm Riff
>When the summer night has ....
>                                            F#m/F#m7 Rhythm Riff
>to the icy cold of ....
>Will you ....
>Aadd9/A7add9 Rhythm Riff
>When the flowers in the ....
>                                                   F#m/F#m7 Rhythm Riff
>start to bow their frozen ....
>Will I ....
>
>CHORUS:
>G              D      Bm              A
>Will you stand by ....
>   G        D            Aadd9/A7add9 Rhythm Riff
>Or are you afraid ....
> G            Aadd9/A7add9 Rhythm Riff
>Afraid of ....
>     G D   Basic Riffs    Chorus End Riff (repeat 2 times)
>Ice.
>
>VERSE 2: Basic Rhythm Riff
>When the waters of ....
>bring a chilling feeling ....
>Are you ....
>When the cloudy skies ....
>and suddenly your nose ....
>C you ....
>
>[CHORUS] No Basic Riffs this time, and just 1 Chorus End Riff
>
>BRIDGE:
>C#m  A  C#m  A  E  B  Aadd9/A7add9 Rhythm Riff  E  B  Aadd9
>C#m  A  C#m  A  E  B  D  A
>C#m  A  C#m  A  E  B  D  A
>C  G
>
>OUTRO:
>G              D     Bm                A
>Will you stand by ....
>G              D     Bm                A
>Will you stand by ....
>G              D     Bm                Chorus End Riff
>Will you stand by ....
>G   D  Bm      A---------------- (Basic Lead Riff)  Fm-----
>Ice
     
Добавлено: 17.08.2013
Вам также может быть интересно:
Другие материалы по этой песне:
  • Аккорды и текст

Страница создана 29.06.2012
http://primanota.ru/crack-the-sky/ice-chords.htm
Привет, Гость.
Предлагаем пройти революционный курс по гитаре.
Подарок от PrimaNota.Ru, забирай!