PrimaNota.ru - самый крупный в мире бесплатный архив песенных текстов, аккордов, табулатур и нот


Cpex - Dikke Lu - таба, бас-таба, видео

Регистрация Запомнить меня
Войти через:  Facebook Google Twitter Vk Yandex Mail.ru

Cpex - Dikke Lu - таба, бас-таба, видео

Печатать
Просмотров: 162
Artist : CPEX
Song : Dikke Lu
Tabbed by Wim Hermans (wimhermans2@hotmail.com)

listen to the song for the rythm
with distortion:


E |------------------------------------
B |------------------------------------
G |------------------------------------
D |2--2--5-----7--5-----7--5-----7--5--
A |0--0--3--0--5--3--0--5--3--0--5--3--
E |------------------------------------



E |-------------------
B |-------------------
G |-------------------
D |2--2--5-----7--5--2
A |0--0--3--0--5--3--0
E |-------------------

This is all my own work.

Mail any corrections or suggestions to wimhermans2@hotmail.com
     
Добавлено: 07.09.2013
Вам также может быть интересно:
Другие материалы по этой песне:
  • Аккорды и текст

Страница создана 10.07.2012
http://primanota.ru/cpex/dikke-lu-chords.htm
Привет, Гость.
Предлагаем пройти революционный курс по гитаре.
Подарок от PrimaNota.Ru, забирай!