PrimaNota.ru - самый крупный в мире бесплатный архив песенных текстов, аккордов, табулатур и нот


Cozy Powell - Dance With The Devil - таба, бас-таба, видео

Регистрация Запомнить меня
Войти через:  Facebook Google Twitter Vk Yandex Mail.ru

Cozy Powell - Dance With The Devil - таба, бас-таба, видео

Печатать
Просмотров: 236
Авторы музыки: Phil Dennys, Michael Hayes

1st Little Bit

E------------------------------------------------------------|
G------------------------------------------------------------|
D------------------------------------------------------------|
B----7-9--------7-9---------7-9--7-9-------------------------|
A----5-7--------5-7---------5-7--5-7---6-7-------------------|
E--------------------------------------4-5-------------------|  times 2


1st Little solo bit

E---------------------------------------------------------------------------|
G---------------------------------------------------------------------------|
D---------------------------------------------------------------------------|
B----6--6-4---4-------------------------4-2---------------------------------|
A-----------5----5-7---5-4-0-4--0-2--4-2------------------------------------|
E---------------------------------------------------------------------------|

2nd little solo bit
----------------------------------------------------------------------------|
----------------------------------------------------------------------------|
----------------------------------------------------------------------------|
----8--8-6---6------------------------6-4-----------------------------------|
-----------7---7-9--7-6---6----4--6-4---------------------------------------|
------------------------7----7----------------------------------------------|


3rd little solo bit

E---------------------------------------------------------------------------|
G---------------------------------------------------------------------------|
D---------------------------------------------------------------------------|
B---------------------------------------------------------------------------|
A------9-9-7----------------9-9-7-------------------------------------------|
E----7-------9-7-7-5-7-9--7-------9-7-5b------------------------------------|


E---------------------------------------------------------------------------|
G---------------------------------------------------------------------------|
D---------------------------------------------------------------------------|
B---------------------------------------------------------------------------|
A------9-9-7-----7-7---------9-9-7------------------------------------------|
E----7-------9-7----9-7-5-7--------9-7-5------------------------------------|


2nd little bit

E---------------------------------------------------------------|
G---------------------------------------------------------------|
D---------------------------------------------------------------|
B----9-11--9-11--9-11-9-11--------------------------------------|
A----7--9--7--9--7--9-7--9-8-10---------------------------------|
E--------------------------6--8---------------------------------|  times 2


Order:

1st little bit
1st little solo bit
2nd little solo bit
3rd little solo bit
2nd little bit
2nd little solo bit
3rd little solo bit  times 2


I think most of this tab is right may a few of the notes are out during the solos but 
it pretty good=)
Добавлено: 11.03.2012
Другие материалы по этой песне:

Страница создана 11.03.2012
http://primanota.ru/cozy-powell/dance-with-the-devil-chords.htm
Привет, Гость.
Предлагаем пройти революционный курс по гитаре.
Подарок от PrimaNota.Ru, забирай!