PrimaNota.ru - самый крупный в мире бесплатный архив песенных текстов, аккордов, табулатур и нот


Cows - Ort - бас-таба, видео

Регистрация Запомнить меня
Войти через:  Facebook Google Twitter Vk Yandex Mail.ru

Cows - Ort - бас-таба, видео

Печатать
Просмотров: 44
Artist - Cows
Album - Cunning Stunts
Song - Ort
Year - 1991
Bassist - Kevin Rutmanis
Tabber - Alowishus
Date - 24/06/2015

The song is pretty simple. There is a main riff which has fills. I've worked out a few of the variations.

Guitar starts:

G|---------------------------------|
D|---------------------------------|
A|---------------------------------|   x2 let note ring.
E|-7-------------------------------|

Then the main riff for the whole song:

G|-------------------------------------|
D|-------------------------------------|
A|------6-6-------6-6----4-6-7-6-4---4-|  x 2
E|-5-5-------5-5-------5-----------7---|

Then up a whole tone:

G|-------------------------------------|
D|-------------------------------------|
A|------8-8-------8-8----6-8-9-8-7---6-|  x 2
E|-7-7-------7-7-------7-----------9---|


Then there's a section where the bass is stripped down:

G|------------------------|
D|------------------------|
A|------------------------|   
E|-3/5--x2-----5/7--x2----|

Then back to the main riff.

There are some variations, where things like this are thrown in:

G|-------------------------------------|
D|---------------------------9-9-9-----|
A|------8-8-------8-8------8-------8-8-| 
E|-7-7-------7-7-------7-7-------------|

There's some noodling, but that's the whole song.
Добавлено: 01.01.2016
Вам также может быть интересно:
Другие материалы по этой песне:
  • Аккорды и текст

Страница создана 01.01.2016
http://primanota.ru/cows/ort-chords.htm
Привет, Гость.
Предлагаем пройти революционный курс по гитаре.
Подарок от PrimaNota.Ru, забирай!