PrimaNota.ru - самый крупный в мире бесплатный архив песенных текстов, аккордов, табулатур и нот


Cowboy Mouth - Light it on Fire - текст песни, таба, видео

Регистрация Запомнить меня
Войти через:  Facebook Google Twitter Vk Yandex Mail.ru

Cowboy Mouth - Light it on Fire - текст песни, таба, видео

Печатать
Просмотров: 127
Date: Fri, 5 Jul 1996 19:32:55 -0500 (CDT)
From: Pete Rasche 


"Light It On Fire" by Cowboy Mouth
From the MCA album "Are You With Me?"
Previously from Domino "Word of Mouth"
And Monkey Hill "Mouthin' Off (Live+More)"
And Paul Sanchez's solo "Jet Black and Jealous"
Written by Paul Sanchez, vocals by Fred LeBlanc


"Light It On Fire" by Cowboy Mouth
--------------------------------------------------------------------
A=002220   E=02210x  C=032010
--------------------------------------------------------------------

MAIN RIFF:
E|------------------------------------------------------------
B|-----------------------------2-----2---2-2------------------
G|-----------------------------2-----2---2-2------------------
D|---------2------0-0------0---2-----2---2-2----4-3-2---------
A|-------------2--------2-------------------------------------
E|---0-0------------------------------------------------------
It's four A.M., 	I'm    drunk and alone
Tryin' to call you on a  public   phone
I  wanted passion, I   wanted   desire
A
My heart is a flame that pains me if I do not

CHORUS:
A	    E
Light it on Fire
A 	E
If I do not light it on fire
A	E
If I do not light it on fire
A  (n.c.)
If I do not light it on fire

VERSE 2 (Main riff repeated through first 3 lines, last line A as above):
I'm the perfect picture of a perfect fool
You're out doin' what I wanted ya' to
I'm in heartbreak hotel and there's a desk clerk for hire
My heart is a flame that pains me if I do not

CHORUS

BRIDGE:
C C E   A	  E
How can I tell you
C C E   A	    E
Just how it feels
C C E   A	    E
How can you make love stay and
A
How do you know if what's stayin' is real

MAIN RIFF + guitar solo

VERSE 3 (same as VERSES 1 and 2):
I was the one full of whiskey and talk
I was the one with the skip in my walk
You say the truth hurts, well so does a liar
My heart's a flame that pains.....

CHORUS
(repeated with A E chords into MAIN RIFF close)

---------------------------------------------------------------------
(note: the easiest way to play the riff is to start with
Your first finger on the D string, 2nd fret.  After the first
Two E notes and the note on the D string, move it to the A
String, where it remains, until you hit the A chords.  After the
A chords, place your first three fingers on the 2nd, 3rd, and 4th
Frets of the D string, and pull off one after each note...)
---------------------------------------------------------------------

Pete Rasche
Prasche@mailhost.tcs.tulane.edu
Добавлено: 02.05.2012
Другие материалы по этой песне:
  • Аккорды и текст

Страница создана 24.02.2012
http://primanota.ru/cowboy-mouth/light-it-on-fire-chords.htm
Привет, Гость.
Предлагаем пройти революционный курс по гитаре.
Подарок от PrimaNota.Ru, забирай!