PrimaNota.ru - самый крупный в мире бесплатный архив песенных текстов, аккордов, табулатур и нот


Covette - In The Mood - бас-таба, видео

Регистрация Запомнить меня
Войти через:  Facebook Google Twitter Vk Yandex Mail.ru

Covette - In The Mood - бас-таба, видео

Печатать
Просмотров: 89
Уроки эстрадного вокала в Санкт-Петербурге
-------------------------------------------------------------------------------
                             In The Mood - Covette
-------------------------------------------------------------------------------

Tuning: E A D G

Intro

G|---------------------------------------------------------------------------|
D|---------------------------------------------------------------------------|
A|---4--4--4--4-4-4--4--4--4--4-4-4--4--4--4--4-4-4--4--4--4--4-4-4----------|
E|---------------------------------------------------------------------------|x5

Verse

G|---------------------------------------------------------------------------|
D|---------------------------------------------------------------------------|
A|---4--4--4--4-4-4--4--4--4--4-4-4--4--4--4--4-4-4--4--4--4--4-4-4----------|
E|---------------------------------------------------------------------------|x6

Chorus

G|---------------------------------------------------------------------------|
D|---------------------------------------------------------------------------|
A|---0-0-0-0-0-0-0-0--0-2-2-2-2-2-2-2--2-4-4-4-4-4-4-4--4-6-6-6-6-6-6-6------|
E|---------------------------------------------------------------------------|

G|---------------------------------------------------------------------------|
D|---------------------------------------------------------------------------|
A|---4--4--4--4-4-4--4--4--4--4-4-4--4--4--4--4-4-4--4--4--4--4-4-4--4\0-----|
E|---------------------------------------------------------------------------|

G|---------------------------------------------------------------------------|
D|---------------------------------------------------------------------------|
A|---0-0-0-0-0-0-0-0--0-2-2-2-2-2-2-2--2-4-4-4-4-4-4-4--4-6-6-6-6-6-6-6--4~--|
E|---------------------------------------------------------------------------|

Interlude

G|---------------------------------------------------------------------------|
D|---------------------------------------------------------------------------|
A|---4--4--4--4-4-4--4--4--4--4-4-4--4--4--4--4-4-4--4--4--4--4-4-4---0/4----|
E|---------------------------------------------------------------------------|

Verse

G|---------------------------------------------------------------------------|
D|---------------------------------------------------------------------------|
A|---4--4--4--4-4-4--4--4--4--4-4-4--4--4--4--4-4-4--4--4--4--4-4-4----------|
E|---------------------------------------------------------------------------|x6

Chorus

G|---------------------------------------------------------------------------|
D|---------------------------------------------------------------------------|
A|---0-0-0-0-0-0-0-0--0-2-2-2-2-2-2-2--2-4-4-4-4-4-4-4--4-6-6-6-6-6-6-6------|
E|---------------------------------------------------------------------------|

G|---------------------------------------------------------------------------|
D|---------------------------------------------------------------------------|
A|---4--4--4--4-4-4--4--4--4--4-4-4--4--4--4--4-4-4--4--4--4--4-4-4--4\0-----|
E|---------------------------------------------------------------------------|

G|---------------------------------------------------------------------------|
D|---------------------------------------------------------------------------|
A|---0-0-0-0-0-0-0-0--0-2-2-2-2-2-2-2--2-4-4-4-4-4-4-4--4-6-6-6-6-6-6-6------|
E|---------------------------------------------------------------------------|

G|---------------------------------------------------------------------------|
D|---------------------------------------------------------------------------|
A|---4--4--4--4-4-4--4--4--4--4-4-4--4--4--4--4-4-4--4--4--4--4-4-4----------|
E|---------------------------------------------------------------------------|

G|---------------------------------------------------------------------------|
D|---------------------------------------------------------------------------|
A|---4-4-4-4-4-4-4-4--6-6-6-6-6-6-6-6--7-7-7-7-7-7-7-7--9-9-9-9-9-9-9-9------|
E|---------------------------------------------------------------------------|

G|---------------------------------------------------------------------------|
D|---------------------------------------------------------------------------|
A|---4~---------------2~---------------0~------------------------------------|
E|------------------------------------------------------4~-------------------|

Bridge

G|---------------------------------------------------------------------------|
D|---------------------------------------------------------------------------|
A|---4--4--4--4-4-4--4--4--4--4-4-4--4--4--4--4-4-4--4--4--4--4-4-4----------|
E|---------------------------------------------------------------------------|x5

Chorus

G|---------------------------------------------------------------------------|
D|---------------------------------------------------------------------------|
A|---0-0-0-0-0-0-0-0--0-2-2-2-2-2-2-2--2-4-4-4-4-4-4-4--4-6-6-6-6-6-6-6------|
E|---------------------------------------------------------------------------|

G|---------------------------------------------------------------------------|
D|---------------------------------------------------------------------------|
A|---4--4--4--4-4-4--4--4--4--4-4-4--4--4--4--4-4-4--4--4--4--4-4-4--4\0-----|
E|---------------------------------------------------------------------------|

G|---------------------------------------------------------------------------|
D|---------------------------------------------------------------------------|
A|---0-0-0-0-0-0-0-0--0-2-2-2-2-2-2-2--2-4-4-4-4-4-4-4--4-6-6-6-6-6-6-6------|
E|---------------------------------------------------------------------------|

G|---------------------------------------------------------------------------|
D|---------------------------------------------------------------------------|
A|---4--4--4--4-4-4--4--4--4--4-4-4--4--4--4--4-4-4--4--4--4--4-4-4----------|
E|---------------------------------------------------------------------------|

G|---------------------------------------------------------------------------|
D|---------------------------------------------------------------------------|
A|---4-4-4-4-4-4-4-4--6-6-6-6-6-6-6-6--7-7-7-7-7-7-7-7--9-9-9-9-9-9-9-9------|
E|---------------------------------------------------------------------------|

G|---------------------------------------------------------------------------|
D|---------------------------------------------------------------------------|
A|---4--4--4--4-4-4--4--4--4--4-4-4--4--4--4--4-4-4--4--4--4--4-4-4----------|
E|---------------------------------------------------------------------------|

| /  slide up
| \  slide down
| h  hammer-on
| p  pull-off
| ~  vibrato
| +  harmonic
| x  Mute note
===============================================================================
Добавлено: 10.07.2015
Вам также может быть интересно:
Другие материалы по этой песне:
  • Аккорды и текст

Страница создана 10.07.2015
http://primanota.ru/covette/in-mood-chords.htm
Привет, Гость.
Предлагаем пройти революционный курс по гитаре.
Подарок от PrimaNota.Ru, забирай!