PrimaNota.ru - самый крупный в мире бесплатный архив песенных текстов, аккордов, табулатур и нот


Covenant - The Sulphur Feast - аккорды и текст, таба, видео

Регистрация Запомнить меня
Войти через:  Facebook Google Twitter Vk Yandex Mail.ru

Covenant - The Sulphur Feast - аккорды и текст, таба, видео

Печатать
Просмотров: 245
Уроки эстрадного вокала в Санкт-Петербурге
The Sulphur Feast
Covenant
		   t. See http://www..net/faq/ for more information.                     #
#-----------------------------------------------------------------------------#


"The Sulphur Feast" By Covenant
Transcribed by Petter Fagerli (petterfagerli@hotmail.com)


Intro Clean gtr:
e|-------------------------|
B|-----0-----0-----0-----0-|
G|---0-----0-----0-----0---|
D|-------------------------|
A|-7-----------------6-----|
E|-------7-----6-----------|


Riff1:
|-------------------------------------------------|
|-------------------------------------------------|
|.-----------------------------------------------.|
|.-----------------------------------------------.|
|-2-----9-----8-----5-----2-----9-----8-----4/5\4-|
|-0-000-7-777-6-666-3-333-0-000-7-777-6-666-2/3\2-|
    PM-|  PM-|  PM-|  PM-|  PM-|  PM-|  PM-|


Riff2:
|------------------------------------------|
|------------------------------------------|
|.-----------------------------------------|
|.-----------------------------------------|
|-2----2----2----2----3----3----3----3-----|
|-0-0000-0000-0000-0001-1111-1111-1111-111-|
   PM-| PM-| PM-| PM-| PM-| PM-| PM-|  PM-|

|-----------------------------------------|
|-----------------------------------------|
|----------------------------------------.|
|---------------------2----2-------------.|
|-2----2----2----2----0-0000-000-3-3--3-3-|
|-0-0000-0000-0000-000-----------1-1--1-1-|
   PM-| PM-| PM-| PM-| PM-| PM-|

Riff3:
		   X3
|--------------------|---------------------|
|--------------------|---------------------|
|.------------------.|-9--9-9-9-9-9--------|
|.7--7-7-7-7-7--4--8.|-7--7-7-7-7-7--7--8--|
|-5--5-5-5-5-5--2--6-|---------------5--6--|
|--------------------|---------------------|

|---------------------|
|---------------------|
|--------------------.|
|-8--8-8-8-8-8--4--8-.|
|-6--6-6-6-6-6--2--6--|
|---------------------|

Riff4:
|----------------------------------|
|----------------------------------|
|----------------------------------|
|----5--4--2--1--1-1-1-1-1-1-1-1-1-|
|----7--5--3--2--2-2-2-2-2-2-2-2-2-|
|-0--------------------------------|
		 PM- -|  PM-|  PM-|

|----------------------------------|
|----------------------------------|
|----------------------------------|
|----5--4--2--1--1-1-1-2-2-2-4-4-4-|
|----7--5--3--2--2-2-2-3-3-3-5-5-5-|
|-0--------------------------------|
		 PM- - - - - - - -|


Riff5:
                           _______________________
                          |1		          |

|-------------------------|-----------------------|
|-------------------------|-----------------------|
|.------------------------|----------------------.|
|.------------------------|----------------------.|
|-------------------------|-------------------5---|
|-0-5-0-3-0-2-0-5-0-3-0-2-|-0-5-0-3-0-2-0-0-0-3---|
  PM- - - - - - - - - - - - - - - - - - - - -|
___________________________
|2			    |

|---------------------------|
|---------------------------|
|--------------------------.|
|--------------------------.|
|-4------4------5--5--5--7--|
|-2--222-2--222-3--3--3--5--|
     PM-|   PM-|

Riff6:
|---------------------------|
|---------------------------|
|---------------------------|
|---------------------------|
|-2-----9-----8-----5-----2-|
|-0-000-7-777-6-666-3-333-0-|
    PM-|  PM-|  PM-|  PM-|

-Play intro 12 times (or so)
-Riff1, 4 times
-Riff2, 2 times
-Riff1, 4 times
-Riff2, 2 times
-Riff3, 4 times
-Intro, 12 times
-Riff1, 4 times
-Riff4, 4 times
-Riff5, 4 times
-Riff2, 2 times
-Riff3, 4 times
-Riff6 once     
Добавлено: 01.07.2013
Другие материалы по этой песне:
  • Аккорды и текст

Страница создана 27.03.2012
http://primanota.ru/covenant/the-sulphur-feast-chords.htm
Привет, Гость.
Предлагаем пройти революционный курс по гитаре.
Подарок от PrimaNota.Ru, забирай!