PrimaNota.ru - самый крупный в мире бесплатный архив песенных текстов, аккордов, табулатур и нот


Covenant - The Last Of Dragons - текст песни, таба, видео

Регистрация Запомнить меня
Войти через:  Facebook Google Twitter Vk Yandex Mail.ru

Covenant - The Last Of Dragons - текст песни, таба, видео

Печатать
Просмотров: 221
-------------------------------------------------------------------------------
                             The Last of Dragons - Covenant
-------------------------------------------------------------------------------
Tabbed by:Derz
Email:phillip55@web.de

Tuning:EADGBe

That are the guitar parts form 0:00 - 2:34 .

Riff1:x4
e|---------------------------------------------------------------------------|
B|---------------------------------------------------------------------------|
G|---------------------------------------------------------------------------|
D|---------------------------------------------------------------------------|
A|-2------101010-999--2----101010-999-2----101010-999--2--4-5----------------|
E|-0--00--------------0-00------------0-00-------------0--2-3----------------|


e|---------------------------------------------------------------------------|
B|---------------------------------------------------------------------------|
G|---------------------------------------------------------------------------|
D|---------------------------------------------------------------------------|
A|-2------101010-999--2----101010-999-2----101010-999--5-4--2----------------|
E|-0--00--------------0-00------------0-00-------------3-2--0----------------|

Riff2:x2
e|---------------------------------------------------------------------------|
B|---------------------------------------------------------------------------|
G|---------------------------------------------------------------------------|
D|------2---------2------5---------5-----------------------------------------|
A|-----2--1-2----2------5--4-5----5------------------------------------------|
E|-0-3--------0-3----3-6-------3-6-------------------------------------------|

Riff3:x4
e|----------------------------------------------12---------------------------|
B|--------------------------------------------12-----------------------------|
G|-------------------(9^)-----------------9-12-------------------------------|
D|---------------------------------------------------------------------------|
A|-2-----2----2----2---2-----2----2----2-------------------------------------|
E|-0-000-0-00-0-00-0---0-000-0-00-0-00-0-------------------------------------|

Riff1:x4

Riff2: Just Play the notes as Powerakkords. 2.Guitar for riff4.

Riff4:x2
e|---------------------------------------------------------------------------|
B|------------------------------------8-11-10-11-13-11-10-11-8-11-10-7-8-----|
G|-9-12-11-12-14-12-11-12-9-12-11-8-9----------------------------------------|
D|---------------------------------------------------------------------------|
A|---------------------------------------------------------------------------|
E|---------------------------------------------------------------------------|

Riff2:x4
Riff3:x4


| /  slide up
| \  slide down
| h  hammer-on
| p  pull-off
| ~  vibrato
| +  harmonic
| x  Mute note
===============================================================================
Добавлено: 18.03.2012
Другие материалы по этой песне:
  • Аккорды и текст

Страница создана 18.03.2012
http://primanota.ru/covenant/the-last-of-dragons-chords.htm
Привет, Гость.
Предлагаем пройти революционный курс по гитаре.
Подарок от PrimaNota.Ru, забирай!