PrimaNota.ru - самый крупный в мире бесплатный архив песенных текстов, аккордов, табулатур и нот


Covenant - Dragonheart - аккорды и текст, таба, видео

Регистрация Запомнить меня
Войти через:  Facebook Google Twitter Vk Yandex Mail.ru

Covenant - Dragonheart - аккорды и текст, таба, видео

Печатать
Просмотров: 181
Dragonheart
Covenant
		   TABBED STRAIGHT OUT OF THE BOOK!

00:00
Drum intro

Riff1:
|'''G5|A5''Bb5|A5''G5|A5''Bb|D5'C#5 Bb5|

					   X3
|:A5''G5|A5''Bb5|A5''G5|D5'C#5 Bb5:|

00:31
Riff2: Play 8 times
e|--------------------------------------------------|
B|--------------------------------------------------|
G|o------------------------------------------7-10~-o|
D|o7----7/10--6----6/10-7----7/10----------7-7-11~-o|
A|-5-5555/-8--4-4444/-8-5-5555/-8-(gtr2)-8-8--------|
E|--------------------------------(gtr1)10----------|
    PM-|        PM-|     PM-|              PM-|


01:01
Riff3: 2 times

|----------------------|----------------------|
|----------------------|----------------------|
|o---------------------|----------------------|
|o7----7----7----7-----|----------------------|
|-5-5555-5555-5555-555-|-5----5----5----5-----|
|----------------------|-3-3333-3333-3333-333-|
    PM-| PM-| PM-| PM-|   PM-| PM-| PM-|  PM-|


|----------------------|------------------------|
|----------------------|------------------------|
|----------------------|-----------------------o|
|----------------------|-7----7-----7-7-7-6-6-6o|
|-7----7----7----7-----|-5-5555-555-8-8-8-7-7-7-|
|-5-5555-5555-5555-555-|------------------------|
   PM-| PM-| PM-|  PM-|   PM-|  PM-|

|----------------------------------------------|
|----------------------------------------------|
|---------------------------------------------o|
|-------------------------7----7----7----7----o|
|-------4-4-4-7-7-7-8-8-8-5-5555-5555-5555-555-|
|-5-5-5----------------------------------------|
  PM- - - - - - - - - - - - - - - - - - - - - |

01:31
Riff4: 4 times

|-------------------------------------------------|
|-------------------------------------------------|
|o------------------------------------------------|
|o------------------------5-7-8-5-7-8-5-7-8-5-7-8-|
|-5-7-8-5-7-8-5-7-8-5-7-8-------------------------|
|-------------------------------------------------|


|-----------------------------5-----5-----5-----5-|
|-----5-----5-----5-----5---6-----6-----6-----6---|
|---6-----6-----6-----6---7-----7-----7-----7----o|
|------7-----7-----7-----------------------------o|
|-------------------------------------------------|
|-------------------------------------------------|

Play the parentheses 1st & 3rd time only.
|-------------------------------------------------|
|-----5-----5-----5-6-5---------------------------|
|---6-----6-----6-------6-7-----------------(7~)-o|
|-7-----7-----7-----------------------7---(7)----o|
|---------------------------5-7-8-7-4-5-(8)-------|
|-------------------------------------------------|


02:01
Riff2: Play 8 times
02:32
Riff5: Haven't figured it out yet
03:03
Riff6: Haven't figured it out yet


03:27
Riff7: Play
gtrs 1&2: 			   _________________________
				  |1,2,3
|------------|------------|------------|------------|
|------------|------------|------------|------------|
|o------7--6-|------------|-------7--6-|-----------o|
|o----7------|-------8--7-|-----7------|-------7^8-o|
|-5-8--------|-----7------|-5-8--------|-----7------|
|------------|-5-9--------|------------|-5-9--------|
| PM- -|       PM- -|       PM- -|       PM- -| tr~~
|
|
|
|2nd time gtr2 plays
|------------|------------|------------|------------|
|-------6--5-|------------|-------6--5-|------------|
|o----7------|-------7--6-|-----7------|-------6^7-o|
|o--7--------|-----7------|---7--------|-----7-----o|
|-8----------|---7--------|-8----------|---7--------|
|------------|-9----------|------------|-9----------|
  PM- -|       PM- -|       PM- -|       PM- -| tr~~

Both gtrs:
|------------|------------|
|------------|------------|
|-7----------|------------|
|-7----------|------------|
|-5----------|------------|
|------------|------------|

03:44
Riff3: Play 2 times
04:18
Riff4: Play 4 times     
Добавлено: 16.07.2013
Другие материалы по этой песне:
  • Аккорды и текст

Страница создана 13.05.2012
http://primanota.ru/covenant/dragonheart-chords.htm
Привет, Гость.
Предлагаем пройти революционный курс по гитаре.
Подарок от PrimaNota.Ru, забирай!