PrimaNota.ru - самый крупный в мире бесплатный архив песенных текстов, аккордов, табулатур и нот


Courtnee Draper - Will The Circle Be Unbroken - таба, видео

Регистрация Запомнить меня
Войти через:  Facebook Google Twitter Vk Yandex Mail.ru

Courtnee Draper - Will The Circle Be Unbroken - таба, видео

Печатать
Просмотров: 475
-------------------------------------------------------------------------------
                             Will the Circle be Unbroken - Courtnee Draper
-------------------------------------------------------------------------------
This is not the original key, but the key i play in the cover I arranged 
(you can watch here http://www.youtube.com/watch?v=vw0wYbIjI5g and you can also use as a guide)
Tabbed by: Kyler Bleakman
E-mail: kaleyandkyler@gmail.com
Optional - Capo on second fret. (This is what i use, changing the key from G to A)

Tuning: Standard

e|-----2h3------5------------------------------------------------------------|
B|----3--------3--------0-----------------------------0---------0------------|
G|---0--------2--------0--------------0---------0-------------------0--------|
D|--0--------0--------0------------0h2-------------0-------------------------|
A|---------------------------------------------------------------------------|
E|------------------3------------3----------3---------------3----------------|


e|---------------------------------------------------------------------------|
B|-----------3----------------------1------3p1----------------------0--------|
G|--------0----------------------0-------------0-----------0-----------------|
D|-----2----------------------2---------------------------------0------------|
A|--3-------------0--0--2--3-------------3-----------------------------------|
E|------------------------------------------------------3--------------------|

e|---------------------------------------------------------------------------|
B|----0h1----0-------0----------3------------------3-------------------------|
G|--------------0--------------4----------------0----------------------------|
D|----------------0-----------5--------------2-------------------------------|
A|---------------------------5-------5\3-----------------0--0--2--3----------|
E|---3-------3---------------------------------------------------------------|

e|---------------------------------------------------------------------------|
B|---------1--------3p1--------------------0----------------------------0----|
G|-------0----------------0---------0---------------------0-------0----------|
D|----1--------------------------------0--------------0h2-------------0------|
A|---------------3-----------------------------------------------------------|
E|--------------------------------3-----------------3-----------3------------|

e|--------------------------0------------------------------------------------|
B|------------------------------------------------1-------3p1----------------|
G|-------------------0-------------------------0----------------0------------|
D|--------------0h2-----2-------------------2--------------------------------|
A|--------------3---------------0--0--2--3--------------3--------------------|
E|---3--3--2-----------------------------------------------------------------|

e|---------------------------------------------------------------------------|
B|----3-----------0------------------------------------0---------3-----------|
G|--------0------------------------0----------0-----------------4------------|
D|-----------0----------------0h2-----------------0------------5-------------|
A|------------------------------------------------------------5------5\3-----|
E|----3-----------3--------3---------------3---------------------------------|

e|---------------------------------------------------------------------15----|
B|-----------------------------------1------3p1-----------------------12+----|
G|---------3----------------------0--------------0-----------0--------12+----|
D|------0----------------------1-------------------------------0------12+----|
A|---2------------0--0--2--3--------------3----------------------------------|
E|---------------------------------------------------------3-----------------|


************************************

| /   slide up
| \   slide down
| h   hammer-on
| p   pull-off
| ~   vibrato
| +   harmonic
| x   Mute note
| b   Bend
| pb  Pre-bend
| br  Bend release
| pbr Pre-bend release
| brb Bend release bend

************************************
Добавлено: 07.10.2013
Другие материалы по этой песне:
  • Аккорды и текст

Страница создана 07.10.2013
http://primanota.ru/courtnee-draper/will-the-circle-be-unbroken-chords.htm
Привет, Гость.
Предлагаем пройти революционный курс по гитаре.
Подарок от PrimaNota.Ru, забирай!