PrimaNota.ru - самый крупный в мире бесплатный архив песенных текстов, аккордов, табулатур и нот


Courage My Love - You Dont Know How - таба, видео

Регистрация Запомнить меня
Войти через:  Facebook Google Twitter Vk Yandex Mail.ru

Courage My Love - You Dont Know How - таба, видео

Печатать
Просмотров: 206
Уроки эстрадного вокала в Санкт-Петербурге
INTRO (part 1)

Electric 1
  (delay)
D|-----------------------------------------------|
A|-----------------------------------------------|
F|-----------------------1010101010-121212/14\10-|
C|-1212121212-1414141414-------------------------|
G|-----------------------------------------------|
C|-----------------------------------------------|

------------------------------------------|
-----------------------------------131313-|
------------------------1010101010--------|
--1212121212-1414141414-------------------|
------------------------------------------|
------------------------------------------|

INTRO (part 2)

Electric 1+2

D|--------------------------------------------------|
A|--------------------------------------------------|
F|--------------10101010---10---9---12121212---9999-|
C|-7-5-3-0----0-x-x-x-x--0-x--0-x-8-x-x-x-x--5-xxxx-|
G|-7-5-3-0----0-8-8-8-8--0-8--0-7-8-10101010-5-7777-|
C|-7-5-3-0----0----------0----0---8----------5------|

VERSE

Electric 1
  (delay)
D|-----------------------------------------------|
A|-----------------------------------------------|
F|-----------------------1010101010-121212/14\10-|
C|-1212121212-1414141414-------------------------|
G|-----------------------------------------------|
C|-----------------------------------------------|

------------------------------------------|
-----------------------------------131313-|
------------------------1010101010--------|
--1212121212-1414141414-------------------|
------------------------------------------|
------------------------------------------|

Electric 2

D|-------|
A|-13----|
F|----10-|
C|-------|
G|-------|
C|-------|

PRE-CHORUS

Electric 1

D|-------|
A|----13-|
F|-10----|
C|-------|
G|-------|
C|-------|

Electric 2
 (repeatedly)
D|---------|
A|------13-|
F|-9-10----|
C|---------|
G|---------|
C|---------|

CHORUS

Electric 1
 (trill)
D|----------|
A|----------|
F|-11-10-12-|
C|----------|
G|----------|
C|----------|

Electric 2

D|-------|
A|-------|
F|-------|
C|-0-3-5-|
G|-0-3-5-|
C|-0-3-5-|

POST

Electric 1+2

D|---------------------------|
A|---------------------------|
F|----10bb------12bb----11bb-|
C|-00--------00------00------|
G|-00-----x2-00------00------|
C|-00--------00------00------|

INTRO

VERSE

PRE-CHORUS

CHORUS

BRIDGE

Electric 1/Synth

D|-------------------------|
A|-------13-------15-13----|
F|-11-12----12-11-------12-|
C|-------------------------|
G|-------------------------|
C|-------------------------|


Electric 2

D|---------------------------|
A|---------------------------|
F|----10bb------12bb----11bb-|
C|-00--------00------00------|
G|-00-----x2-00------00------|
C|-00--------00------00------|

CHORUS
Добавлено: 24.11.2013
Другие материалы по этой песне:
  • Аккорды и текст

Страница создана 24.11.2013
http://primanota.ru/courage-my-love/you-dont-know-how-chords.htm
Привет, Гость.
Предлагаем пройти революционный курс по гитаре.
Подарок от PrimaNota.Ru, забирай!