PrimaNota.ru - самый крупный в мире бесплатный архив песенных текстов, аккордов, табулатур и нот


Courage My Love - Smoke And Mirrors - таба, видео

Регистрация Запомнить меня
Войти через:  Facebook Google Twitter Vk Yandex Mail.ru

Courage My Love - Smoke And Mirrors - таба, видео

Печатать
Просмотров: 114
INTRO (part 1)

Electric 1+2

D|----------------------------------------------------------------------|
A|----------------------------------------------------------------------|
F|-----101010---10---10------111111-----8bb-----101010---10---10-----11-|
C|-111-x-x-x--1-x--1-x---999-x-x-x--666-----111-x-x-x--1-x--1-x--999-x--|
G|-111-8-8-8--1-8--1-8---999-9-9-9--666-----111-8-8-8--1-8--1-8--999-9--|
C|-111--------1----1-----999--------666-----111--------1----1----999----|

-----------------|
-----------------|
-----------------|
-----------------|
-----4-6-8-9-8-6-|
-6-8-------------|

INTRO (part 1)

Electric 1+2

D|----------------------------------------------------------------------|
A|----------------------------------------------------------------------|
F|-----101010---10---10------111111-----8bb-----101010---10---10-----11-|
C|-111-x-x-x--1-x--1-x---999-x-x-x--666-----111-x-x-x--1-x--1-x--999-x--|
G|-111-8-8-8--1-8--1-8---999-9-9-9--666-----111-8-8-8--1-8--1-8--999-9--|
C|-111--------1----1-----999--------666-----111--------1----1----999----|

-----------------|
-----------------|
-----------------|
-----------------|
-----4-6-8-9-8-6-|
-6-8-------------|

Electric 3

D|--------------------------------|
A|------7-----------9--------11---|
F|----7---7-------7---7----7----7-|
C|-10-------x2-10-------10--------|
G|--------------------------------|
C|--------------------------------|

VERSE

Electric 1+2
(listen to song for strumming pattern)
D|--------------|
A|--------------|
F|--------------|
C|-13-9-6-1-9-6-|
G|-13-9-6-1-9-6-|
C|-13-9-6-1-9-6-|

PRE-CHORUS

Electric 1+2
(listen to song for strumming pattern)
D|-------------------------------|
A|-------------------------------|
F|-------------------------------|
C|-15-6-1-6-9-8-9-6-1-4-9-8-6----|
G|-15-6-1-6-9-8-9-6-1-4-9-8-6----|
C|-15-6-1-6-9-8-9-6-1-4-9-8-6----|

CHORUS

Electric 1
  (picked)         (pattern)
D|---------|      |---------|
A|-14-11-9-|      |-x-------|
F|-13-11-8-|      |---x---x-|
C|-11-8--6-|----> |-----x---|
G|---------|      |---------|
C|---------|      |---------|

Electric 2

D|-------------------|
A|-------------------|
F|-------------------|
C|-9-6-4-11-13h16h15-| x2
G|-9-6-4-11-13h16h15-|
C|-9-6-4-11-13h16h15-|

INTRO (part 2)

VERSE

PRE-CHORUS

CHORUS

SOLO (a little to advanced for me a little help would be nice :P)

CHORUS

INTRO
Добавлено: 21.06.2013
Другие материалы по этой песне:
  • Аккорды и текст

Страница создана 21.06.2013
http://primanota.ru/courage-my-love/smoke-and-mirrors-chords.htm
Привет, Гость.
Предлагаем пройти революционный курс по гитаре.
Подарок от PrimaNota.Ru, забирай!