PrimaNota.ru - самый крупный в мире бесплатный архив песенных текстов, аккордов, табулатур и нот


Courage My Love - For Now - таба, видео

Регистрация Запомнить меня
Войти через:  Facebook Google Twitter Vk Yandex Mail.ru

Courage My Love - For Now - таба, видео

Печатать
Просмотров: 94
-----------------------------------------------------------------------------
                             For Now - Courage My Love
-----------------------------------------------------------------------------
Tabbed by: duwaar
E-mail: duwaar@Yahoo.com

Tuning:C#,G#,C#,F#,A#,d#

M = mute immediately after playing
~ = let ring
/ = slide up
\ = slide down
h = hammer on
p = pull off
2x = play again before continuing
x = mute
< > = harmonic

this tab may be kind of confusing and although nothing beats listening to
the actual song, this is the order it goes in;

intro
pre-verse
verse
chorus 1
chorus 2
pre-verse
verse
chorus 1
chorus 2
bridge
chorus 2
outro

The noise at the beginning is feedback so i won't tab that.
just face your amp and turn it way up and you will get the same kind of thing.
For these chords at the beginning I find that it sounds best
if you strum up and down instead of just down, but it's up to you.

      INTRO:
d#|-------------------------------------------------------------------|
A#|------------------------------------7-7-7-7-7-7-7-7---7-7-7-7-7-7--|
F#|----7-7-7-7-7-7-7-7---7-7-7-7-7-7---7-7-7-7-7-7-7-7---7-7-7-7-7-7--|
C#|----7-7-7-7-7-7-7-7---7-7-7-7-7-7---x-x-x-x-x-x-x-x---x-x-x-x-x-x--|
G#|----5-5-5-5-5-5-5-5---5-5-5-5-5-5---5-5-5-5-5-5-5-5---5-5-5-5-5-5--|
C#|-------------------------------------------------------------------|

d#|------------------------------------5-5-5-5-5-5-5-5~--------------------|
A#|----8-8-8-8-8-8-8-8---8-8-8-8-8-8---8-8-8-8-8-8-8-8~--------------------|
F#|----7-7-7-7-7-7-7-7---7-7-7-7-7-7---7-7-7-7-7-7-7-7~--------------------|
C#|----x-x-x-x-x-x-x-x---x-x-x-x-x-x---------------------------------------|
G#|----5-5-5-5-5-5-5-5---5-5-5-5-5-5---------------------------------------|
C#|------------------------------------------------------------------------|

PRE-VERSE
The first time around, you play this twice, second time you only play it once.

d#|---------------------9------9~---9------9------9----10---------|
A#|---------10----10------10----------10-----10-----10---10-------|
F#|-----------11----11------11----------11-----11----------11-----|
C#|----0-0------12----12-------------------------------------12---|
G#|----0-0--------------------------------------------------------|
C#|----0-0--------------------------------------------------------|

d#|------------------------------------------------------------------------|
A#|------------------------------------------------------------------------|
F#|------------------------------------------------------------------------|
C#|----5---5---5-5-5-5---5-5-5---5-5-4/5---5---5-5-5-5---5-5-5-------------|
G#|----5---5---5-5-5-5---5-5-5---5-5-4/5---5---5-5-5-5---5-5-5----<5>------|
C#|----5---5---5-5-5-5---5-5-5---5-5-4/5---5---5-5-5-5---5-5-5-5h7---------|

VERSE
the "M" means; immediately mute after playing.

         Well I could never be the one who sits at home at  the  tv-----
         There I go...        ...am I still...       ...to a--ny
d#|----------------------------------------------------------------|
A#|----------------------------------------------------------------|
F#|---------------------------------M-------------------M---M---M--|
C#|----0---0~-----------------------0-------------------0---0---0--|
G#|----0---0~-----------------------0-------------------0---0---0--|
C#|----0---0~-----------------------0-------------------0---0---0--|

                                   Oh  no--------o 
       one                         Oh  no--------o
d#|------------------------------------------------------------------------|
A#|------------------------------------------------------------------------|
F#|------------------------------------------------------------------------|
C#|----5---5---5-5-5-5---5-5---5-5-5---7-----9---5---5-5-5h7-0~------------|
G#|----5---5---5-5-5-5---5-5---5-5-5---7-----9---5---5-5-5h7-0~------------|
C#|----5---5---5-5-5-5---5-5---5-5-5---7-----9---5---5-5-5h7-0~------------|

play this riff during the first verse

    ...terrified to live out my own dreams
d#|--------------------------------|
A#|--------------------------------|
F#|--------------------------------|
C#|----0------0-----0--------0-----|
G#|----4------5-----12-------9-----|
C#|----0------0-----0--------0-----|
                          
for the second verse play this riff
    ...I can't say it all in just one    
d#|--------------------------------|
A#|----<7>------<7>------<7>-------|
F#|-------<7>------<7>------<7>----|
C#|----------<7>------<7>----------|
G#|--------------------------------|
C#|--------------------------------|

CHORUS 1

                                                 Oh no---o
       so---ng                                   Oh no---o
d#|--------------------------------------------------------------------|
A#|--------------------------------------------------------------------|
F#|--------------------------------------------------------------------|
C#|----5---5---5-5-5-5---5-5-5---5-5-4/5---5---5-5-5-5---5-5-5---------|
G#|----5---5---5-5-5-5---5-5-5---5-5-4/5---5---5-5-5-5---5-5-5----<5>--|
C#|----5---5---5-5-5-5---5-5-5---5-5-4/5---5---5-5-5-5---5-5-5-5h7-----|
  

                 woa----------------o              can you hear me now 
                 woa----------------o              are we loud enough
d#|-------------------------------------------------------------------|
A#|-------------------------------------------------------------------|
F#|-------------------------------------------------------------------|
C#|----4-4-4-5---x-x-x---x-x-x---x-x-x---4-4-4-5---9-9-9-7~-----------|2X
G#|----4-4-4-5---x-x-x---x-x-x---x-x-x---4-4-4-5---9-9-9-7~-----------|
C#|----4-4-4-5---x-x-x---x-x-x---x-x-x---4-4-4-5---9-9-9-7~-----------|

d#|------------------------------------------------------------------|
A#|------------------------------------------------------------------|
F#|------------------------------------------------------------------|
C#|----0-0---0-0---0-0---0-0-----------0-0---0-0---0-0---0-0---------|2X
G#|----0-0---0-0---0-0---0-0-----------0-0---0-0---0-0---0-0-----5---|
C#|----0-0---0-0---0-0---0-0---5\4p0---0-0---0-0---0-0---0-0---------|

CHORUS 2
           let's make this feeling last    longer than tonight
           let's lose it all...            we've got no reason...
d#|--------------------------------------------------------------------|
A#|--------------------------------------------------------------------|
F#|--------------------------------------------------------------------|
C#|----0---0~--------------------------7---7---------------------------|
G#|----0---0~--------------------------7---7---------------------------|
C#|----0---0~--------------------------7---7---------------------------|
 
            for now          this crowd we're all alike
            for now          stand down          guess i'll just dream...
d#|------------------------------------------------------------------------|
A#|------------------------------------------------------------------------|
F#|----------------------------------------------------------------------M-|
C#|----9----9--9h12-----7----7--7h9----------5---5---x-x-x---5---5-5---4/5-|
G#|----9----9--9h12-----7----7--7h9----------5---5---x-x-x---5---5-5---4/5-|
C#|----9----9--9h12-----7----7--7h9----------5---5---x-x-x---5---5-5---4/5-|

   end of chorus 2
       for now let's just pretend
d#|---------------------------------|
A#|---------------------------------|
F#|---------------------------------|
C#|----5---5---x-x-5-5--5-5---4/5---|
G#|----5---5---x-x-5-5--5-5---4/5---|
C#|----5---5---x-x-5-5--5-5---4/5---|


BRIDGE
on the album she either has some funky effects pedal or else
there are multiple guitar tracks, because it sounds like she plays
the riff on the 3rd string, and some cool harmonic thing on the 4th.
anyway this is how I play it.

d#|------------------------------------------------------------------|
A#|------------------------------------------------------------------|
F#|------------------------------------------------------------------|
C#|----0-0-4h5p4-0---0-4h5p4---4h5p4---0-0-4h5p4-0---0-4h5p4h5-5/7---|
G#|------------------------------------------------------------------|
C#|------------------------------------------------------------------|

       let's make this feeling last lets make this feeling last oh tonight
d#|------------------------------------------------------------------|
A#|------------------------------------------------------------------|
F#|----------------------------------------------------2h4p2h4-4/7---|
C#|----0-0-4h5p4-0---0-4h5p4---4h5p4---0-0-4h5p4-0---0---------------|
G#|------------------------------------------------------------------|
C#|------------------------------------------------------------------|

OUTRO
(from chorus 2)
play the open power chord 16 times

                           Oh~~
d#|-----------------------------|
A#|-----------------------------|
F#|-----------------------------|
C#|----0---0---0---0-------5~~--|
G#|----0---0---0---0--<4x--5~~--|
C#|----0---0---0---0-------5~~--|

THE END
Добавлено: 26.11.2013
Другие материалы по этой песне:
  • Аккорды и текст

Страница создана 30.08.2013
http://primanota.ru/courage-my-love/for-now-chords.htm
Привет, Гость.
Предлагаем пройти революционный курс по гитаре.
Подарок от PrimaNota.Ru, забирай!