PrimaNota.ru - самый крупный в мире бесплатный архив песенных текстов, аккордов, табулатур и нот


Courage My Love - For Now Acoustic Sessions - таба, видео

Регистрация Запомнить меня
Войти через:  Facebook Google Twitter Vk Yandex Mail.ru

Courage My Love - For Now Acoustic Sessions - таба, видео

Печатать
Просмотров: 96
-------------------------------------------------------------------------------
                  For Now (Acoustic Sessions) - Courage My Love
-------------------------------------------------------------------------------
Tabbed by: @ohnoitsAvon

Tuning: Standard  EADGBE
* Some acoustic perfomances are in Half Step Down tuning D# G# C# F# A# D# *

CHORDS *These are displayed above the tab*

D1: X 5 7 7 X X
D2: X 5 7 7 7 5
D3: X X 7 7 5 5
G : X 5 5 7 8 X
F#: X 4 4 6 7 X
A1: X 0 2 2 2 0
A2: 5 7 7 6 5 5
A3: X 7 7 9 10X
B1: X 2 4 4 X X
B2: 7 9 9 X X X
C#: X 4 6 6 X X


INTRO

   D1                                D2
E|-----------------------------------5-5-5-5-5-5-5-5--5-5-5-5-5-5-5-5--------|
B|-----------------------------------7-7-7-7-7-7-7-7--7-7-7-7-7-7-7-7--------|
G|-7-7-7-7-7-7-7-7--7-7-7-7-7-7-7-7--7-7-7-7-7-7-7-7--7-7-7-7-7-7-7-7--------|
D|-7-7-7-7-7-7-7-7--7-7-7-7-7-7-7-7--7-7-7-7-7-7-7-7--7-7-7-7-7-7-7-7--------|
A|-5-5-5-5-5-5-5-5--5-5-5-5-5-5-5-5--5-5-5-5-5-5-5-5--5-5-5-5-5-5-5-5--------|
E|---------------------------------------------------------------------------|

   G                                 D3
E|-----------------------------------5-5-5-5-5-5-5-5-------------------------|
B|-8-8-8-8-8-8-8-8--8-8-8-8-8-8-8-8--5-5-5-5-5-5-5-5-------------------------|
G|-7-7-7-7-7-7-7-7--7-7-7-7-7-7-7-7--7-7-7-7-7-7-7-7-------------------------|
D|-5-5-5-5-5-5-5-5--5-5-5-5-5-5-5-5--7-7-7-7-7-7-7-7-------------------------|
A|-5-5-5-5-5-5-5-5--5-5-5-5-5-5-5-5------------------------------------------|
E|---------------------------------------------------------------------------|

   D1                                       G
E|-----5---------9---------9---------10--------------------------------------|
B|---5---5-----5---5-----5---5-----7----7---8-8-8-8-8-8-8-8--8-8-8-8-8-8-8-8-|
G|-7---------7---------7---------7--------7-7-7-7-7-7-7-7-7--7-7-7-7-7-7-7-7-|
D|-0-------0---------0---------0------------5-5-5-5-5-5-5-5--5-5-5-5-5-5-5-5-|
A|------------------------------------------5-5-5-5-5-5-5-5--5-5-5-5-5-5-5-5-|
E|---------------------------------------------------------------------------|

   D1                                       G
E|-----5---------9---------9---------10--------------------------------------|
B|---5---5-----5---5-----5---5-----7----7---8-8-8-8-8-8-8-8--8-8-8-8-8-8-8-8-|
G|-7---------7---------7---------7--------7-7-7-7-7-7-7-7-7--7-7-7-7-7-7-7-7-|
D|-0-------0---------0---------0------------5-5-5-5-5-5-5-5--5-5-5-5-5-5-5-5-|
A|------------------------------------------5-5-5-5-5-5-5-5--5-5-5-5-5-5-5-5-|
E|---------------------------------------------------------------------------|

Verse 1

   D1                                                      G
E|---------------------------------------------------------------------------|
B|---------------------------------------------------------8-8-8-8-8-8-8-8---|
G|-7-------------------------7--------------------7--7---7-7-7-7-7-7-7-7-7---|
D|-7-------------------------7--------------------7--7---7-5-5-5-5-5-5-5-5---|
A|-5-------------------------5--------------------5--5---5-5-5-5-5-5-5-5-5---|
E|---------------------------------------------------------------------------|
   Well I could never be the one who sits at home by the T V

   A1    B1 G
E|-0-0-0-------------|
B|-2-2-2----8-8-8-8--|
G|-2-2-2-4--7-7-7-7--|
D|-2-2-2-4--5-5-5-5--|
A|-0-0-0-2--5-5-5-5--|
E|-------------------|
   Oh       No

   D1                                                      G
E|---------------------------------------------------------------------------|
B|-------------------------------------------------------8-8-8-8-8-8-8-8-----|
G|-7------------------------7----7-------7--------7------7-7-7-7-7-7-7-7-----|
D|-7------------------------7----7-------7--------7------5-5-5-5-5-5-5-5-----|
A|-5------------------------4----5----------------5------5-5-5-5-5-5-5-5-----|
E|---------------------------------------5-----------------------------------|
   Watching what others see terrified to live out my own dreams

   A1    B1 G
E|-0-0-0-------------|
B|-2-2-2----8-8-8-8--|
G|-2-2-2-4--7-7-7-7--|
D|-2-2-2-4--5-5-5-5--|
A|-0-0-0-2--5-5-5-5--|
E|-------------------|
   Oh       No

   F#    G            F#    G        B2   A2
E|----------------------------------------5-------|
B|-7-7-7-8------------7-7-7-8-------------5-------|
G|-6-6-6-7------------6-6-6-7-------------6-------|
D|-4-4-4-5------------4-4-4-5--------9----7-------|
A|-4-4-4-5------------4-4-4-5--------9----7-------|
E|-----------------------------------7----5-------|
          Oh oh oh oh        Can you hear me now?

   F#    G            F#    G B2     A2    G
E|-----------------------------------5------------|
B|-7-7-7-8------------7-7-7-8--------5-----8------|
G|-6-6-6-7------------6-6-6-7--------6-----7------|
D|-4-4-4-5------------4-4-4-5-9------7-----5------|
A|-4-4-4-5------------4-4-4-5-9------7-----5------|
E|----------------------------7------5------------|
          Oh oh oh oh         Are we loud enough?

Chorus

   D1                               A1                     B1
E|----------------------------------0--0--0--0--0--0--0--0-------------------|
B|----------------------------------2--2--2--2--2--2--2--2-------------------|
G|-7---7---7---7---7---7---7---7----2--2--2--2--2--2--2--2---4---4---4---4---|
D|-7---7---7---7---7---7---7---7----2--2--2--2--2--2--2--2---4---4---4---4---|
A|-5---5---5---5---5---5---5---5----0--0--0--0--0--0--0--0---2---2---2---2---|
E|---------------------------------------------------------------------------|
       Let's make this feeling last Longer  than   tonight       For now

   A1                    G             A3
E|-0----0----0----0-----------------------|
B|-2----2----2----2------8-8-8-8-8-8-8-10-|
G|-2----2----2----2------7-7-7-7-7-7-7-9--|
D|-2----2----2----2------5-5-5-5-5-5-5-7--|
A|-0----0----0----0------5-5-5-5-5-5-5-7--|
E|----------------------------------------|
        This crowd we're all     alike

   D1                               A1                     B1
E|----------------------------------0--0--0--0--0--0--0--0-------------------|
B|----------------------------------2--2--2--2--2--2--2--2-------------------|
G|-7---7---7---7---7---7---7---7----2--2--2--2--2--2--2--2---4---4---4---4---|
D|-7---7---7---7---7---7---7---7----2--2--2--2--2--2--2--2---4---4---4---4---|
A|-5---5---5---5---5---5---5---5----0--0--0--0--0--0--0--0---2---2---2---2---|
E|---------------------------------------------------------------------------|
       Let's loose it all           we've got no reason          For now
                and forget the past                  left to fight

   A1                    G
E|-0----0----0----0------------------------------------------------------|
B|-2----2----2----2------8--8--8--8--8--8--8--8--8--8--8--8--8--8--8--8--|
G|-2----2----2----2------7--7--7--7--7--7--7--7--7--7--7--7--7--7--7--7--|
D|-2----2----2----2------5--5--5--5--5--5--5--5--5--5--5--5--5--5--5--5--|
A|-0----0----0----0------5--5--5--5--5--5--5--5--5--5--5--5--5--5--5--5--|
E|-----------------------------------------------------------------------|
      We'll stand down   I guess I'll just dream till then
                                                   for now let's just pretend

   D1                                       G
E|-----5---------9---------9---------10--------------------------------------|
B|---5---5-----5---5-----5---5-----7----7---8-8-8-8-8-8-8-8--8-8-8-8-8-8-8-8-|
G|-7---------7---------7---------7--------7-7-7-7-7-7-7-7-7--7-7-7-7-7-7-7-7-|
D|-0-------0---------0---------0------------5-5-5-5-5-5-5-5--5-5-5-5-5-5-5-5-|
A|------------------------------------------5-5-5-5-5-5-5-5--5-5-5-5-5-5-5-5-|
E|---------------------------------------------------------------------------|


Verse 2

   D1                                                      G
E|---------------------------------------------------------------------------|
B|---------------------------------------------------------8-8-8-8-8-8-8-8---|
G|-7-------------------------7--------------------7---7--7-7-7-7-7-7-7-7-7---|
D|-7-------------------------7--------------------7---7--7-5-5-5-5-5-5-5-5---|
A|-5-------------------------5--------------------5---5--5-5-5-5-5-5-5-5-5---|
E|---------------------------------------------------------------------------|
   Well there I go
    about to jump the gun am I still making sense to  an-y-one?

   A1    B1 G
E|-0-0-0-------------|
B|-2-2-2----8-8-8-8--|
G|-2-2-2-4--7-7-7-7--|
D|-2-2-2-4--5-5-5-5--|
A|-0-0-0-2--5-5-5-5--|
E|-------------------|
   Oh       No

   D1                                                      G
E|----------------------------------------------------------------------------|
B|------------------------------------------------------------8-8-8-8-8-8-8-8-|
G|-7----------------------------7-------7------7------7-------7-7-7-7-7-7-7-7-|
D|-7----------------------------7-------7------7------7-------5-5-5-5-5-5-5-5-|
A|-5----------------------------4-------5-------------5-------5-5-5-5-5-5-5-5-|
E|---------------------------------------------5------------------------------|
   'cus I ramble on and on, and I can't say it all in just one song

   A1    B1 G
E|-0-0-0-------------|
B|-2-2-2----8-8-8-8--|
G|-2-2-2-4--7-7-7-7--|
D|-2-2-2-4--5-5-5-5--|
A|-0-0-0-2--5-5-5-5--|
E|-------------------|
   Oh       No

   F#    G            F#    G        B2   A2
E|----------------------------------------5-------|
B|-7-7-7-8------------7-7-7-8-------------5-------|
G|-6-6-6-7------------6-6-6-7-------------6-------|
D|-4-4-4-5------------4-4-4-5--------9----7-------|
A|-4-4-4-5------------4-4-4-5--------9----7-------|
E|-----------------------------------7----5-------|
          Oh oh oh oh        Can you hear me now?

   F#    G            F#    G B2     A2    G
E|-----------------------------------5------------|
B|-7-7-7-8------------7-7-7-8--------5-----8------|
G|-6-6-6-7------------6-6-6-7--------6-----7------|
D|-4-4-4-5------------4-4-4-5-9------7-----5------|
A|-4-4-4-5------------4-4-4-5-9------7-----5------|
E|----------------------------7------5------------|
          Oh oh oh oh         Are we loud enough?

Chorus

   D1                               A1                     B1
E|----------------------------------0--0--0--0--0--0--0--0-------------------|
B|----------------------------------2--2--2--2--2--2--2--2-------------------|
G|-7---7---7---7---7---7---7---7----2--2--2--2--2--2--2--2---4---4---4---4---|
D|-7---7---7---7---7---7---7---7----2--2--2--2--2--2--2--2---4---4---4---4---|
A|-5---5---5---5---5---5---5---5----0--0--0--0--0--0--0--0---2---2---2---2---|
E|---------------------------------------------------------------------------|
       Let's make this feeling last Longer  than   tonight       For now

   A1                    G             A3
E|-0----0----0----0-----------------------|
B|-2----2----2----2------8-8-8-8-8-8-8-10-|
G|-2----2----2----2------7-7-7-7-7-7-7-9--|
D|-2----2----2----2------5-5-5-5-5-5-5-7--|
A|-0----0----0----0------5-5-5-5-5-5-5-7--|
E|----------------------------------------|
        This crowd we're all     alike

   D1                               A1                     B1
E|----------------------------------0--0--0--0--0--0--0--0-------------------|
B|----------------------------------2--2--2--2--2--2--2--2-------------------|
G|-7---7---7---7---7---7---7---7----2--2--2--2--2--2--2--2---4---4---4---4---|
D|-7---7---7---7---7---7---7---7----2--2--2--2--2--2--2--2---4---4---4---4---|
A|-5---5---5---5---5---5---5---5----0--0--0--0--0--0--0--0---2---2---2---2---|
E|---------------------------------------------------------------------------|
       Let's loose it all           we've got no reason          For now
                and forget the past                  left to fight

   A1                    G
E|-0----0----0----0------------------------------------------------------|
B|-2----2----2----2------8--8--8--8--8--8--8--8--8--8--8--8--8--8--8--8--|
G|-2----2----2----2------7--7--7--7--7--7--7--7--7--7--7--7--7--7--7--7--|
D|-2----2----2----2------5--5--5--5--5--5--5--5--5--5--5--5--5--5--5--5--|
A|-0----0----0----0------5--5--5--5--5--5--5--5--5--5--5--5--5--5--5--5--|
E|-----------------------------------------------------------------------|
      We'll stand down   I guess I'll just dream till then
                                                   for now let's just pretend

Bridge

   D1  C# D1  G  F# G D1
E|---------------------------------------------------------------------------|
B|------------8--7--8--------------------------------------------------------|
G|-7---6--7---7--6--7-7----------------------------7-------------------------|
D|-7---6--7---5--4--5-7----------------------------7-------------------------|
A|-5---4--5---5--4--5-5----------------------------5-------------------------|
E|---------------------------------------------------------------------------|
                      Let's make this feeling last Let's make this feeling last


   G
E|----------------------------------------------------|
B|-8-----------------------------8-8-8-8-8-8-8-8------|
G|-7-----------------------------7-7-7-7-7-7-7-7------|
D|-5-----------------------------5-5-5-5-5-5-5-5------|
A|-5-----------------------------5-5-5-5-5-5-5-5------|
E|----------------------------------------------------|
   Let's make this feeling last  Oh,         tonight

Chorus

   D1                               A1                     B1
E|----------------------------------0--0--0--0--0--0--0--0-------------------|
B|----------------------------------2--2--2--2--2--2--2--2-------------------|
G|-7---7---7---7---7---7---7---7----2--2--2--2--2--2--2--2---4---4---4---4---|
D|-7---7---7---7---7---7---7---7----2--2--2--2--2--2--2--2---4---4---4---4---|
A|-5---5---5---5---5---5---5---5----0--0--0--0--0--0--0--0---2---2---2---2---|
E|---------------------------------------------------------------------------|
       Let's make this feeling last Longer  than   tonight       For now

   A1                    G             A3
E|-0----0----0----0-----------------------|
B|-2----2----2----2------8-8-8-8-8-8-8-10-|
G|-2----2----2----2------7-7-7-7-7-7-7-9--|
D|-2----2----2----2------5-5-5-5-5-5-5-7--|
A|-0----0----0----0------5-5-5-5-5-5-5-7--|
E|----------------------------------------|
        This crowd we're all     alike

   D1                               A1                     B1
E|----------------------------------0--0--0--0--0--0--0--0-------------------|
B|----------------------------------2--2--2--2--2--2--2--2-------------------|
G|-7---7---7---7---7---7---7---7----2--2--2--2--2--2--2--2---4---4---4---4---|
D|-7---7---7---7---7---7---7---7----2--2--2--2--2--2--2--2---4---4---4---4---|
A|-5---5---5---5---5---5---5---5----0--0--0--0--0--0--0--0---2---2---2---2---|
E|---------------------------------------------------------------------------|
       Let's loose it all           we've got no reason          For now
                and forget the past                  left to fight

   A1                    G
E|-0----0----0----0------------------------------------------------------|
B|-2----2----2----2------8--8--8--8--8--8--8--8--8--8--8--8--8--8--8--8--|
G|-2----2----2----2------7--7--7--7--7--7--7--7--7--7--7--7--7--7--7--7--|
D|-2----2----2----2------5--5--5--5--5--5--5--5--5--5--5--5--5--5--5--5--|
A|-0----0----0----0------5--5--5--5--5--5--5--5--5--5--5--5--5--5--5--5--|
E|-----------------------------------------------------------------------|
      We'll stand down   I guess I'll just dream till then
                                                   for now let's just pretend

   D1                                D2                               G
E|-----------------------------------5-5-5-5-5-5-5-5--5-5-5-5-5-5-5-5--------|
B|-----------------------------------7-7-7-7-7-7-7-7--7-7-7-7-7-7-7-7-8------|
G|-7-7-7-7-7-7-7-7--7-7-7-7-7-7-7-7--7-7-7-7-7-7-7-7--7-7-7-7-7-7-7-7-7------|
D|-7-7-7-7-7-7-7-7--7-7-7-7-7-7-7-7--7-7-7-7-7-7-7-7--7-7-7-7-7-7-7-7-5------|
A|-5-5-5-5-5-5-5-5--5-5-5-5-5-5-5-5--5-5-5-5-5-5-5-5--5-5-5-5-5-5-5-5-5------|
E|---------------------------------------------------------------------------|
                                                                      Oh
Добавлено: 05.06.2013
Другие материалы по этой песне:
  • Аккорды и текст

Страница создана 05.06.2013
http://primanota.ru/courage-my-love/for-now-acoustic-sessions-chords.htm
Привет, Гость.
Предлагаем пройти революционный курс по гитаре.
Подарок от PrimaNota.Ru, забирай!