PrimaNota.ru - самый крупный в мире бесплатный архив песенных текстов, аккордов, табулатур и нот


Courage My Love - Do You Hear What I Hear - таба, видео

Регистрация Запомнить меня
Войти через:  Facebook Google Twitter Vk Yandex Mail.ru

Courage My Love - Do You Hear What I Hear - таба, видео

Печатать
Просмотров: 149
-------------------------------------------------------------------------------
                Do You Hear What I Hear - Courage My Love
-------------------------------------------------------------------------------
Tabbed by: @ohnoitsAvon

Tuning: Acoustic Standard  EADGBE
        Electric Drop D    DADGBE

INTRO (Electric N/A)

Acoustic
E|-3-3--3-3-3-3--3-3--3-3-3-3--0-0--2-2-2-2-3-3-3-5-3------------------------|
B|-3-3--3-3-3-3--3-3--3-3-3-3--0-0--3-3-3-3-3-3-3-3-3------------------------|
G|-0-0--0-0-0-0--0-0--0-0-0-0--0-0--2-2-2-2-0-5-5-5-5-5----------------------|
D|-0-0--0-0-0-0--0-0--0-0-0-0--2-2--0-0-0-0-0-5-5-5-5--5---------------------|
A|-2-2--2-2-2-2--0-0--0-0-0-0--2-2------------3-3-3-3------------------------|
E|-3-3--3-3-3-3--2-2--2-2-2-2--0-0-------------------------------------------|


Verse 1 (Electric N/A)

Acoustic
E|-------3-----3----3--3---3--3---3--3-3-3-3-3--0------0--------2-3-3-3-3-3-3|
B|-------3-----3----3--3---3--3---3--3-3-3-3-3--0------0--------3-3-3-3-3-3-3|
G|-------0-----0----0--0---0--0---0--0-0-0-0-0--0------0--------2-0-0-0-0-0-0|
D|-------0-----0----0--0---0--0---0--0-0-0-0-0--2------2--------0-2-2-2-2-2-2|
A|-------2-----2----2--2---0--0---2--2-2-2-2-2--2------2----------3-3-3-3-3-3|
E|-------3-----3----3--3---2--2---3--3-3-3-3-3--0------0---------------------|

Said the night wind to the little lamb          Do you see what I see

Acoustic
E|-------3-----3----3--3---3--3---3--3-3-3-3-3--0------0--------2-3-3-3-3-3-3|
B|-------3-----3----3--3---3--3---3--3-3-3-3-3--0------0--------3-3-3-3-3-3-3|
G|-------0-----0----0--0---0--0---0--0-0-0-0-0--0------0--------2-0-0-0-0-0-0|
D|-------0-----0----0--0---0--0---0--0-0-0-0-0--2------2--------0-2-2-2-2-2-2|
A|-------2-----2----2--2---0--0---2--2-2-2-2-2--2------2----------3-3-3-3-3-3|
E|-------3-----3----3--3---2--2---3--3-3-3-3-3--0------0---------------------|

         Way   up   in the sky
                           little lamb          Do you see what I see

Acoustic
E|-0--0----0-0-0-0--3-----3--------3-3-3-3-----0----0--2--2-----3-3-3-3-3-3--|
B|-0--0----0-0-0-0--3-----3--------3-3-3-3-----0----0--3--3-----3-3-3-3-3-3--|
G|-0--0----0-0-0-0--0-----0--------0-0-0-0-----0----0--2--2-----5-5-5-5-5-5--|
D|-2--2----2-2-2-2--2-----2--------2-2-2-2-----2----2--0--0-----5-5-5-5-5-5--|
A|-2--2----2-2-2-2--3-----3--------3-3-3-3-----2----2-----------3-3-3-3-3-3--|
E|-0--0----0-0-0-0-----------------------------0----0------------------------|

 A star, a star     Dancing in the nigh With a tail as big as a kite

Acoustic
E|-----3----3-3-3-3-3--3-3--3-3-3-3--3-3--3-3-3-3--0-0--2-2-2-2-3-3-3-3-3-3-3|
B|-----4----4-4-4-4-4--3-3--3-3-3-3--3-3--3-3-3-3--0-0--3-3-3-3-3-3-3-3-3-3-3|
G|-----5----5-5-5-5-5--0-0--0-0-0-0--0-0--0-0-0-0--0-0--2-2-2-2-0-0-0-0-0-0-0|
D|-----5----5-5-5-5-5--0-0--0-0-0-0--0-0--0-0-0-0--2-2--0-0-0-0-0-2-2-2-2-2-2|
A|-----3----3-3-3-3-3--2-2--2-2-2-2--0-0--0-0-0-0--2-2------------3-3-3-3-3-3|
E|---------------------3-3--3-3-3-3--2-2--2-2-2-2--0-0-----------------------|

With a tail as big as a kite


Verse 2

Acoustic
E|-------3-----3----3--3---3--3---3--3-3-3-3-3--0------0--------2-3-3-3-3-3-3|
B|-------3-----3----3--3---3--3---3--3-3-3-3-3--0------0--------3-3-3-3-3-3-3|
G|-------0-----0----0--0---0--0---0--0-0-0-0-0--0------0--------2-0-0-0-0-0-0|
D|-------0-----0----0--0---0--0---0--0-0-0-0-0--2------2--------0-2-2-2-2-2-2|
A|-------2-----2----2--2---0--0---2--2-2-2-2-2--2------2----------3-3-3-3-3-3|
E|-------3-----3----3--3---2--2---3--3-3-3-3-3--0------0---------------------|

Said the                                        Do you hear
        little lamb to the shepard boy                     what I hear

Acoustic
E|-------3-----3----3--3---3--3---3--3-3-3-3-3--0------0--------2-3-3-3-3-3-3|
B|-------3-----3----3--3---3--3---3--3-3-3-3-3--0------0--------3-3-3-3-3-3-3|
G|-------0-----0----0--0---0--0---0--0-0-0-0-0--0------0--------2-0-0-0-0-0-0|
D|-------0-----0----0--0---0--0---0--0-0-0-0-0--2------2--------0-2-2-2-2-2-2|
A|-------2-----2----2--2---0--0---2--2-2-2-2-2--2------2----------3-3-3-3-3-3|
E|-------3-----3----3--3---2--2---3--3-3-3-3-3--0------0---------------------|

         Ringing through   shepard              Do you hear
                    the sky    boy                         what I hear

Acoustic
E|-0--0----0-0-0-0--3-----3--------3-3-3-3-----0----0--2--2-----3-3-3-3-3-3--|
B|-0--0----0-0-0-0--3-----3--------3-3-3-3-----0----0--3--3-----3-3-3-3-3-3--|
G|-0--0----0-0-0-0--0-----0--------0-0-0-0-----0----0--2--2-----5-5-5-5-5-5--|
D|-2--2----2-2-2-2--2-----2--------2-2-2-2-----2----2--0--0-----5-5-5-5-5-5--|
A|-2--2----2-2-2-2--3-----3--------3-3-3-3-----2----2-----------3-3-3-3-3-3--|
E|-0--0----0-0-0-0-----------------------------0----0------------------------|

 A song, a song     High above the trees            as big as the
                                        With a voice            sea
(Electric comes in now (Clean))
Electric
E|---------------------------------------------------------------------------|
B|---------------------------------------------------8-----------------------|
G|--------------------------------------------------7-7----------------------|
D|---------------------5--------------------------------7---5-----7---5------|
A|---------------------5-----------------------------------------------------|
D|---------------------5-----------------------------------------------------|

Acoustic
E|-----3----3-3-3-3-3--3-3--3-3-3-3--3-3--3-3-3-3--0-0--2-2-2-2-3-3-3-3-3-3-3|
B|-----4----4-4-4-4-4--3-3--3-3-3-3--3-3--3-3-3-3--0-0--3-3-3-3-3-3-3-3-3-3-3|
G|-----5----5-5-5-5-5--0-0--0-0-0-0--0-0--0-0-0-0--0-0--2-2-2-2-0-0-0-0-0-0-0|
D|-----5----5-5-5-5-5--0-0--0-0-0-0--0-0--0-0-0-0--2-2--0-0-0-0-0-2-2-2-2-2-2|
A|-----3----3-3-3-3-3--2-2--2-2-2-2--0-0--0-0-0-0--2-2------------3-3-3-3-3-3|
E|---------------------3-3--3-3-3-3--2-2--2-2-2-2--0-0-----------------------|

With a voice as big as
                   the sea


Verse 3

Electric
E|---------------------------------------------------------------------------|
B|---------------------------------------------------------------------------|
G|--------------------------------------------------------------7-5----------|
D|-------5-----------------5------5-------------2---------------7-5----------|
A|-------5-----------------5------5-------------2---------------5-3----------|
D|-------5-----------------4------5-------------2----------------------------|

Acoustic
E|-------3-----3----3--3---3--3---3--3-3-3-3-3--0------0--------2-3-3-3-3-3-3|
B|-------3-----3----3--3---3--3---3--3-3-3-3-3--0------0--------3-3-3-3-3-3-3|
G|-------0-----0----0--0---0--0---0--0-0-0-0-0--0------0--------2-0-0-0-0-0-0|
D|-------0-----0----0--0---0--0---0--0-0-0-0-0--2------2--------0-2-2-2-2-2-2|
A|-------2-----2----2--2---0--0---2--2-2-2-2-2--2------2----------3-3-3-3-3-3|
E|-------3-----3----3--3---2--2---3--3-3-3-3-3--0------0---------------------|

Said the shepard                                Do you know what
               boy  to the mighty king                          I know

Electric
E|---------------------------------------------------------------------------|
B|---------------------------------------------------------------------------|
G|--------------------------------------------------------------7-5----------|
D|-------5-----------------5------5-------------2---------------7-5----------|
A|-------5-----------------5------5-------------2---------------5-3----------|
D|-------5-----------------4------5-------------2----------------------------|

Acoustic
E|-------3-----3----3--3---3--3---3--3-3-3-3-3--0------0--------2-3-3-3-3-3-3|
B|-------3-----3----3--3---3--3---3--3-3-3-3-3--0------0--------3-3-3-3-3-3-3|
G|-------0-----0----0--0---0--0---0--0-0-0-0-0--0------0--------2-0-0-0-0-0-0|
D|-------0-----0----0--0---0--0---0--0-0-0-0-0--2------2--------0-2-2-2-2-2-2|
A|-------2-----2----2--2---0--0---2--2-2-2-2-2--2------2----------3-3-3-3-3-3|
E|-------3-----3----3--3---2--2---3--3-3-3-3-3--0------0---------------------|

         In your                                Do you know what
             palace wall   mighty king                          I know

Electric
E|---------------------------------------------------------------------------|
B|---------------------------------------------------------------------------|
G|------------------5--------------------------9-------7--------5------------|
D|-2----------------5--------------------------9-------7--------5------------|
A|-2----------------3--------------------------7-------5--------3------------|
D|-2-------------------------------------------------------------------------|

Acoustic
E|-0--0----0-0-0-0--3-----3--------3-3-3-3-----0----0--2--2-----3-3-3-3-3-3--|
B|-0--0----0-0-0-0--3-----3--------3-3-3-3-----0----0--3--3-----3-3-3-3-3-3--|
G|-0--0----0-0-0-0--0-----0--------0-0-0-0-----0----0--2--2-----5-5-5-5-5-5--|
D|-2--2----2-2-2-2--2-----2--------2-2-2-2-----2----2--0--0-----5-5-5-5-5-5--|
A|-2--2----2-2-2-2--3-----3--------3-3-3-3-----2----2-----------3-3-3-3-3-3--|
E|-0--0----0-0-0-0-----------------------------0----0------------------------|

 A child, a child   Shivers in the cold Let us bring   silver and
                                                    him         gold

Electric              (Distortion)
E|-----3---------------------------------------------------------------------|
B|-----4---------------------------------------------------------------------|
G|-----5-------------------------------------------5-5--5-5-5-5--5-5-5-5-5-5-|
D|-----5---------------2-2--2-2-2-2----------------5-5--5-5-5-5--5-5-5-5-5-5-|
A|-----3---------------2-2--2-2-2-2--0-0--0-0-0-0--3-3--3-3-3-3--3-3-3-3-3-3-|
D|---------------------2-2--2-2-2-2--0-0--0-0-0-0----------------------------|

Acoustic
E|-----3----3-3-3-3-3--0-0--0-0-0-0--2-2--2-2-2-2--3-3--3-3-3-3--3-3-3-3-3-3-|
B|-----4----4-4-4-4-4--0-0--0-0-0-0--3-3--3-3-3-3--3-3--3-3-3-3--3-3-3-3-3-3-|
G|-----5----5-5-5-5-5--0-0--0-0-0-0--2-2--2-2-2-2--0-0--0-0-0-0--0-0-0-0-0-0-|
D|-----5----5-5-5-5-5--2-2--2-2-2-2--0-0--0-0-0-0--2-2--2-2-2-2--2-2-2-2-2-2-|
A|-----3----3-3-3-3-3--2-2--2-2-2-2----------------3-3--3-3-3-3--3-3-3-3-3-3-|
E|---------------------0-0--0-0-0-0------------------------------------------|

Let us bring him silver
                   and gold


Verse 4

Electric
E|---------------------------------------------------------------------------|
B|---------------------------------------------------------------------------|
G|5----5--------------------------------------------------------7-5-5-5-5-5-5|
D|5----5-5-----5----5--5---5--5---5--5-5-5-5-5--2------2--------7-5-5-5-5-5-5|
A|3----3-5-----5----5--5---5--5---5--5-5-5-5-5--2------2--------5-3-3-3-3-3-3|
D|-------5-----5----5--5---4--4---5--5-5-5-5-5--2------2---------------------|

Acoustic
E|-------3-----3----3--3---3--3---3--3-3-3-3-3--0------0--------2-3-3-3-3-3-3|
B|-------3-----3----3--3---3--3---3--3-3-3-3-3--0------0--------3-3-3-3-3-3-3|
G|-------0-----0----0--0---0--0---0--0-0-0-0-0--0------0--------2-0-0-0-0-0-0|
D|-------0-----0----0--0---0--0---0--0-0-0-0-0--2------2--------0-2-2-2-2-2-2|
A|-------2-----2----2--2---0--0---2--2-2-2-2-2--2------2----------3-3-3-3-3-3|
E|-------3-----3----3--3---2--2---3--3-3-3-3-3--0------0---------------------|

         king  to the                           Listen to what  I say
  Said the          people every -where

Electric
E|---------------------------------------------------------------------------|
B|---------------------------------------------------------------------------|
G|------------------------------5-5--5-5-5-5------------------7-5-5-5-5-5-5--|
D|---2----2---2-----------------5-5--5-5-5-5--2------2--------7-5-5-5-5-5-5--|
A|---2----2---2-----------------3-3--3-3-3-3--2------2--------5-3-3-3-3-3-3--|
D|---2----2---2-------------------------------2------2-----------------------|

Acoustic
E|---0----0---0-----------------3-3--3-3-3-3--0------0--------2-3-3-3-3-3-3--|
B|---0----0---0-----------------3-3--3-3-3-3--0------0--------3-3-3-3-3-3-3--|
G|---0----0---0-----------------0-0--0-0-0-0--0------0--------2-0-0-0-0-0-0--|
D|---2----2---2-----------------2-2--2-2-2-2--2------2--------0-2-2-2-2-2-2--|
A|---2----2---2-----------------3-3--3-3-3-3--2------2----------3-3-3-3-3-3--|
E|---0----0---0-------------------------------0------0-----------------------|

     Pray for peace people everywhere         Listen to what  I say

Electric
E|---------------------------------------------------------------------------|
B|---------------------------------------------------------------------------|
G|------------------5-----5--------5-5-5-5-----9----9--7--7-----5-5-5-5-5-5--|
D|-2--2----2-2-2-2--5-----5--------5-5-5-5-----9----9--7--7-----5-5-5-5-5-5--|
A|-2--2----2-2-2-2--3-----3--------3-3-3-3-----7----7--5--5-----3-3-3-3-3-3--|
D|-2--2----2-2-2-2-----------------------------------------------------------|

Acoustic
E|-0--0----0-0-0-0--3-----3--------3-3-3-3-----0----0--2--2-----3-3-3-3-3-3--|
B|-0--0----0-0-0-0--3-----3--------3-3-3-3-----0----0--3--3-----3-3-3-3-3-3--|
G|-0--0----0-0-0-0--0-----0--------0-0-0-0-----0----0--2--2-----5-5-5-5-5-5--|
D|-2--2----2-2-2-2--2-----2--------2-2-2-2-----2----2--0--0-----5-5-5-5-5-5--|
A|-2--2----2-2-2-2--3-----3--------3-3-3-3-----2----2-----------3-3-3-3-3-3--|
E|-0--0----0-0-0-0-----------------------------0----0------------------------|

The                                    He will bring        and light
   child, the child Sleeping in the night           us goodness

Electric
E|------3----3-3-3-3-3-3-3-3-3-3-3-3-3---------------------------------------|
B|------4----4-4-4-4-4-4-4-4-4-4-4-4-4---------------------------------------|
G|------5----5-5-5-5-5-5-5-5-5-5-5-5-5---------------------------------------|
D|------5----5-5-5-5-5-5-5-5-5-5-5-5-5-5-------------------------------------|
A|------3----3-3-3-3-3-3-3-3-3-3-3-3-3-5-------------------------------------|
D|-------------------------------------5-------------------------------------|

Acoustic
E|------3----3-3-3-3-3-3-3-3-3-3-3-3-3---------------------------------------|
B|------4----4-4-4-4-4-4-4-4-4-4-4-4-4---------------------------------------|
G|------5----5-5-5-5-5-5-5-5-5-5-5-5-5---------------------------------------|
D|------5----5-5-5-5-5-5-5-5-5-5-5-5-5---------------------------------------|
A|------3----3-3-3-3-3-3-3-3-3-3-3-3-3---------------------------------------|
E|---------------------------------------------------------------------------|

He will bring  us      goodness    and light

Electric (N/A)

Acoustic
E|--3-3--3-3-3-3-----3-3--3-3-3-3-------------0-0--2-2-2-2-3-3-3-5-3---3-----|
B|--3-3--3-3-3-3-----3-3--3-3-3-3-------------0-0--3-3-3-3-3-3-3-------3-----|
G|--0-0--0-0-0-0-----0-0--0-0-0-0-------------0-0--2-2-2-2-0-5-5----5--0-----|
D|--0-0--0-0-0-0-----0-0--0-0-0-0-------------2-2--0-0-0-0-0-5-5-----5-0-----|
A|--2-2--2-2-2-2-----0-0--0-0-0-0-------------2-2------------3-3-------2-----|
E|--3-3--3-3-3-3-----2-2--2-2-2-2-------------0-0----------------------3-----|

The child, the child Sleeping in the night Oooohhhhhh
Добавлено: 25.06.2013
Другие материалы по этой песне:
  • Аккорды и текст

Страница создана 25.06.2013
http://primanota.ru/courage-my-love/do-you-hear-what-i-hear-chords.htm
Привет, Гость.
Предлагаем пройти революционный курс по гитаре.
Подарок от PrimaNota.Ru, забирай!