PrimaNota.ru - самый крупный в мире бесплатный архив песенных текстов, аккордов, табулатур и нот


Counting Crows - Insignificant - аккорды и текст, таба, видео

Регистрация Запомнить меня
Войти через:  Facebook Google Twitter Vk Yandex Mail.ru

Counting Crows - Insignificant - аккорды и текст, таба, видео

Печатать
Просмотров: 166
Уроки эстрадного вокала в Санкт-Петербурге
Insignificant
Counting Crows
Insignificant
Counting Crows
Saturday Nights and Sunday Mornings



This text file contains three versions of this song:
-Capo 4
-Capo 1
-No Capo

-------------------------------------------------------------------------------------------------
Standard Tuning
Capo 4

Intro: A x2

Intro Riff:

e|-------0---------------------------------------------------|
B|-----------3--2---0----------------------------------------|
G|---2-----------------0-------------------------------------|
D|-----------------------------------------------------------|     x2
A|-----------------------------------------------------------|
E|-----------------------------------------------------------|


Verse 1:

A
Can you see me, 
          Em
Up on the building, 
                 D
from down on the pavement,
              A        
or out in the crowd,



Verse 2:

A
can you see me, 
                         E
Through the glare of the lamp post,
                    G                    A
Co's I am walking a tight rope, into the moon, 


Chorus 1:

Bm        G           A     D
  I don't wanna feel, so different 
     Bm       G        A     D
But I.. don't wanna be Insignificant,
     Bm      G          A                   E         A (with intro riff twice)
And I don't know how to see the same things different now,

e|-------0---------------------------------------------------|
B|-----------3--2---0----------------------------------------|
G|---2-----------------0-------------------------------------|
D|-----------------------------------------------------------|     x2
A|-----------------------------------------------------------|
E|-----------------------------------------------------------|

Verse 3: (Starts as the second repeat of the riff is ending)

          A
Could you see me, 
              Em
I am one in a million,
            D
I am Icarus falling,
        A
Out of the sun,

Verse 4:

          A                          
Could you see me falling the line-up,
                Em
Spot lights and jackknives,
                             G
Through nights as black as a bedroom,
                  A
But as white as a lie, 


Chorus 2:

Bm        G           A     D
  I don't wanna feel, so different 
     Bm       G        A     D
But I.. don't wanna be Insignificant,
     Bm      G          A                   E         A (with intro riff twice)
And I don't know how to see the same things different now,

e|-------0---------------------------------------------------|
B|-----------3--2---0----------------------------------------|
G|---2-----------------0-------------------------------------|
D|-----------------------------------------------------------|     x2
A|-----------------------------------------------------------|
E|-----------------------------------------------------------|

Middle 8:

G
  Diving through the dark,
          Bm
While the night turns blue,
E
  Hey I'm aware of you're intentions,
G                              A
  Co's I wear my intentions, so clear


Guitar Solo(Play over):

A - Em - G - A   x2


Verse 5:

       A
If you see me,
              Em
wading through water,
                      G
Ohh come drown in the river,
                      A
Right in front of the world,

Verse 6:

            A                                          Em
hey you can wash your face in the endless dream of my anger,
                      G
Co's its as bright as white paper,
                 A
And as dark as a girl,


Chorus 3:

Bm        G           A     D
  I don't wanna feel, so different 
     Bm       G        A     D
But I.. don't wanna be Insignificant,
     Bm      G          A                   E         A 
And I don't know how to see the same things different now,


Chorus 4:

Bm        G           A     D
  I don't wanna feel, so different 
     Bm       G        A     D
But I.. don't wanna be Insignificant,
     Bm      G          A                   E         A (with intro riff twice)
And I don't know how to see the same things different now,

Outro:
A x4
now now now now


----------------------------------------------------------------------------
Standard Tuning
Capo 1

Intro: C x2

Intro Riff:

e|-----3--1----0-----------------------------------------|
B|-1-------------3---------------------------------------|
G|----------------------3--------------------------------|
D|-------------------------------------------------------|     x2
A|-------------------------------------------------------|
E|-------------------------------------------------------|


Verse 1:

C
Can you see me, 
          Gm
Up on the building, 
                 F
from down on the pavement,
              C        
or out in the crowd,



Verse 2:

C
can you see me, 
                         G
Through the glare of the lamp post,
                    Bb                   C
Co's I am walking a tight rope, into the moon, 


Chorus 1:

Dm        Bb          C     F
  I don't wanna feel, so different 
     Dm       Bb       C     F
But I.. don't wanna be Insignificant,
     Dm      Bb         C                   G         C (with intro riff twice)
And I don't know how to see the same things different now,

e|-----3--1----0-----------------------------------------|
B|-1-------------3---------------------------------------|
G|----------------------3--------------------------------|
D|-------------------------------------------------------|     x2
A|-------------------------------------------------------|
E|-------------------------------------------------------|

Verse 3: (Starts as the second repeat of the riff is ending)

          C
Could you see me, 
              Gm
I am one in a million,
            F
I am Icarus falling,
        C
Out of the sun,

Verse 4:

          C                          
Could you see me falling the line-up,
                Gm
Spot lights and jackknifes,
                             Bb
Through nights as black as a bedroom,
                  C
But as white as a lie, 


Chorus 2:

Dm        Bb          C     F
  I don't wanna feel, so different 
     Dm       Bb       C     F
But I.. don't wanna be Insignificant,
     Dm      Bb         C                   G         C (with intro riff twice)
And I don't know how to see the same things different now,

e|-----3--1----0-----------------------------------------|
B|-1-------------3---------------------------------------|
G|----------------------3--------------------------------|
D|-------------------------------------------------------|     x2
A|-------------------------------------------------------|
E|-------------------------------------------------------|

Middle 8:

Bb
  Diving through the dark,
          Dm
While the night turns blue,
G
  Hey I'm aware of you're intentions,
Bb                             C
  Co's I wear my intentions, so clear


Guitar Solo(Play over):

C - Gm - Bb - C   x2


Verse 5:

       C
If you see me,
              Gm
wading through water,
                      Bb
Ohh come drown in the river,
                      C
Right in front of the world,

Verse 6:

            C                                          Gm
hey you can wash your face in the endless dream of my anger,
                      Bb
Co's its as bright as white paper,
                 C
And as dark as a girl,


Chorus 3:

Dm        Bb          C     F
  I don't wanna feel, so different 
     Dm       Bb       C     F
But I.. don't wanna be Insignificant,
     Dm      Bb         C                   G         C 
And I don't know how to see the same things different now,


Chorus 4:

Dm        Bb          C     F
  I don't wanna feel, so different 
     Dm       Bb       C     F
But I.. don't wanna be Insignificant,
     Dm      Bb         C                   G         C (with intro riff twice)
And I don't know how to see the same things different now,

Outro:
C x4
now now now now


---------------------------------------------------------------------------------------------
Standard Tuning
No capo

Intro: C# x2

Intro Riff:

e|-----4--2----1-----------------------------------------|
B|-2-------------4---------------------------------------|
G|----------------------4--------------------------------|
D|-------------------------------------------------------|     x2
A|-------------------------------------------------------|
E|-------------------------------------------------------|


Verse 1:

C#
Can you see me, 
          Abm
Up on the building, 
                 F#
from down on the pavement,
              C#       
or out in the crowd,



Verse 2:

C#
can you see me, 
                         Ab
Through the glare of the lamp post,
                    B                    C#
Co's I am walking a tight rope, into the moon, 


Chorus 1:

Ebm       B           C#    F#
  I don't wanna feel, so different 
     Ebm      B        C#    F#
But I.. don't wanna be Insignificant,
     Ebm     B          C#                  Ab        C# (with intro riff twice)
And I don't know how to see the same things different now,

e|-----4--2----1-----------------------------------------|
B|-2-------------4---------------------------------------|
G|----------------------4--------------------------------|
D|-------------------------------------------------------|     x2
A|-------------------------------------------------------|
E|-------------------------------------------------------|

Verse 3: (Starts as the second repeat of the riff is ending)

          C#
Could you see me, 
              Abm
I am one in a million,
            F#
I am Icarus falling,
        C#
Out of the sun,

Verse 4:

          C#                          
Could you see me falling the line-up,
                Abm
Spot lights and jackknifes,
                             B
Through nights as black as a bedroom,
                  C#
But as white as a lie, 


Chorus 2:

Ebm       B           C#    F#
  I don't wanna feel, so different 
     Ebm      B        C#    F#
But I.. don't wanna be Insignificant,
     Ebm     B          C#                  Ab        C# (with intro riff twice)
And I don't know how to see the same things different now,

e|-----4--2----1-----------------------------------------|
B|-2-------------4---------------------------------------|
G|----------------------4--------------------------------|
D|-------------------------------------------------------|     x2
A|-------------------------------------------------------|
E|-------------------------------------------------------|

Middle 8:

B
  Diving through the dark,
          Ebm
While the night turns blue,
Ab
  Hey I'm aware of you're intentions,
B                              C#
  Co's I wear my intentions, so clear


Guitar Solo(Play over):

C# - Abm - B - C#   x2


Verse 5:

       C#
If you see me,
              Abm
wading through water,
                      B
Ohh come drown in the river,
                      C#
Right in front of the world,

Verse 6:

            C#                                         Abm
hey you can wash your face in the endless dream of my anger,
                      B
Co's its as bright as white paper,
                 C#
And as dark as a girl,


Chorus 3:

Ebm       B           C#    F#
  I don't wanna feel, so different 
     Ebm      B        C#    F#
But I.. don't wanna be Insignificant,
     Ebm     B          C#                  Ab        C#
And I don't know how to see the same things different now,


Chorus 4:

Ebm       B           C#    F#
  I don't wanna feel, so different 
     Ebm      B        C#    F#
But I.. don't wanna be Insignificant,
     Ebm     B          C#                  Ab        C# (with intro riff twice)
And I don't know how to see the same things different now,

Outro:
C# x4
now now now now
Добавлено: 04.06.2012
Другие материалы по этой песне:
  • Аккорды и текст

Страница создана 04.06.2012
http://primanota.ru/counting-crows/insignificant-chords.htm
Привет, Гость.
Предлагаем пройти революционный курс по гитаре.
Подарок от PrimaNota.Ru, забирай!