PrimaNota.ru - самый крупный в мире бесплатный архив песенных текстов, аккордов, табулатур и нот


Counting Crows - Catapult - текст песни, таба, видео

Регистрация Запомнить меня
Войти через:  Facebook Google Twitter Vk Yandex Mail.ru

Counting Crows - Catapult - текст песни, таба, видео

Печатать
Просмотров: 171
Авторы музыки: David Bryson, Ben Mize, Dan Vickrey, Charlie Gillingham, Adam Duritz, Matt Malley
Авторы текста: Adam Duritz
Date: Tue, 19 Nov 1996 19:52:38 -0800
From: "Michael A. Mazur" 
Subject: TAB: Counting Crows, "Catapult"


Tab: "Catapult" by Counting Crows
Transcribed by Michael A. Mazur (mmazur@wpi.edu)
Revised by Aaron Carlino (acarlino@Empire.Net)

Intro: Hammond Organ arranged for guitar (play twice):

||---0----------12----0-----------0----------|
||---9--10--12--------15--14--12--9--10--12--|
||*------------------------------------------|
||*------------------------------------------|
||-------------------------------------------|
||-------------------------------------------|



|--0----------0--0---0--0--0--0--0---||
|--9--10--12-----10--9--7--5--7--9---||
|-----------------------------------*||
|-----------------------------------*||
|------------------------------------||
|------------------------------------||

After the first time, guitar 1 enters with a little distortion and a
Lot of tremolo:

|--0--
|--0--
|--1-- hold for 8 beats
|--2--
|--2--
|--0--

Verse:
|-----------------------------------|
|-----------------------------------|
|-----2--1-----1--------1-----2--4--|
|-----------4-----4--2-----2--------|
|-----------------------------------|
|--0--------------------------------|



|-----------------------------------|
|-----------------------------------|
|-----2--1-----1--------1-----2--1--|
|-----------4-----2--4-----2--------|
|-----------------------------------|
|--0--------------------------------|

E                   Asus2 Asus2/G#
All of a sudden she disappears,
Just yesterday she was here
Somebody tell me if I am sleeping
Someone should be with me here (cause I don't want to be alone)

Chorus:

Guitar 1 plays this riff twice
|---------------------------------12------------------|
|-----12------12------10------10------10--12b(14)r12--|
|-----------------------------------------------------|
|/13------13------13------11--------------------------|
|-----------------------------------------------------|
|-----------------------------------------------------|

|-------------------------------------------------|
|-----12------10--------10-----10-----9-----9-----|
|-----------------9---------9------9-----9-----9--|
|/13------13--------------------------------------|
|-------------------------------------------------|
|-------------------------------------------------|
*Second time, end here      ^

B                         A            E
I wanna be the knife that cuts into my hand
And I wanna be scattered from here in this catapult
What a big baby    won't somebody save me please

B                     A
You won't find nobody home

Verse 2: (same as first)

All of these quiet battered voices
Wait for the hunger to come
We got little revolvers and stupid choices
And no one to say when we're done
(Well I don't wanna bring you down)
Добавлено: 19.04.2012
Другие материалы по этой песне:

Страница создана 19.04.2012
http://primanota.ru/counting-crows/catapult-chords.htm
Привет, Гость.
Предлагаем пройти революционный курс по гитаре.
Подарок от PrimaNota.Ru, забирай!