PrimaNota.ru - самый крупный в мире бесплатный архив песенных текстов, аккордов, табулатур и нот


Countess - Heilig Vuur - таба, видео

Регистрация Запомнить меня
Войти через:  Facebook Google Twitter Vk Yandex Mail.ru

Countess - Heilig Vuur - таба, видео

Печатать
Просмотров: 141
HEILIG VUUR

As performed by COUNTESS on the album "Heilig Vuur".
Words and music by Orlok.

Normal tuning.

x = palm mute

Fig. 1
E|----------------------------|
B|----------------------------|
G|----------------------------|
D|-4--7-4---4--7-4-------4444-|
A|-4--7-4---4--7-4-------4444-|
E|-2--5-2---2--5-2-------2222-|
                         xxxx

Fig. 2
E|------------------|
B|------------------|
G|------------------|
D|-2-------9--------|
A|-2-------9--------|
E|-0-------7--------|

Fig. 3
E|----------|
B|----------|
G|----------|
D|-55555555-|
A|-55555555-|
E|-33333333-|
   xxxxxxxx

Fig. 4
E|------------------------------------------------------------------|
B|------------------------------------------------------------------|
G|------------------------------------------------------------------|
D|------------------------------------------------------------------|
A|------------------------------------------------------------------|
E|-3333333333333333777777777777777755555555555555558888888888888888-|

Fig. 5
E|------------------------------------------------------------------|
B|------------------------------------------------------------------|
G|------------------------------------------------------------------|
D|-------------------------------------------------7777777777777777-|
A|-------------------------------------------------7777777777777777-|
E|-3333333333333333777777777777777755555555555555555555555555555555-|
                                                   xxxxxxxxxxxxxxxx

Fig. 6
E|-------------------|
B|-------------------|
G|-------------------|
D|-4--7--5--55555555-|
A|-4--7--5--55555555-|
E|-2--5--3—-33333333-|
            xxxxxxxx

Fig. 7
E|--------------------------------|
B|--------------------------------|
G|--------------------------------|
D|--------------------------------|
A|-----2-3-2------------2-3-2-----|
E|-2-3-------3-2-3--2-3-------3-2-|

Fig. 8
E|--------------------------------|
B|--------------------------------|
G|--------------------------------|
D|---------2----------------2-----|
A|-----2-3---3-2--------2-3---3-2-|
E|-2-3-----------3--2-3-----------|

Fig. 9
E|--------------------------------|
B|--------------------------------|
G|--------------------------------|
D|-----2-4-2------------2-4-2-----|
A|-2-3-------3-2-3--2-3-------3-2-|
E|--------------------------------|

Fig. 10
E|----------------------------------------------------------|
B|----------------------------------------------------------|
G|----------------------------------------------------------|
D|---------------------2-4-2-5--4-2----2------5-4-2---------|
A|-3-2----2--------2-3--------------3----3-2--------3-2-----|
E|-----3----3-2--3--------------------------------------3-2-|

Fig. 11
E|------------------------------------------------------------------|
B|------------------------------------------------------------------|
G|------------------------------------------------------------------|
D|-4-------4-------5-------5-------9-------9-------7-------7--------|
A|-4-------4-------5-------5-------9-------9-------7-------7--------|
E|-2-------2-------3-------3-------7-------7-------5-------5--------|

Fig. 12
E|----------|
B|----------|
G|----------|
D|-4--7--5--|
A|-4--7--5--|
E|-2--5--3—-|


SONG STRUCTURE

Fig 1 x 2
Fig 2 x 1
Fig 1 x 2		w/guitar lead
Fig 2 x 1		w/guitar lead
Fig 3 x 2		w/guitar lead
Fig 4 x 1		w/verse 1
Fig 1 x 1
Fig 5 x 1		w/verse 2
Fig 6 x 4		w/chorus
Fig 1 x 1
Fig 4 x 1		w/verse 3
Fig 1 x 1
Fig 5 x 1		w/verse 4
Fig 6 x 4		w/chorus
Fig 1 x 1
Fig 4 x 1		w/verse 5
Fig 1 x 1
Fig 5 x 1		w/verse 6
Fig 6 x 4		w/chorus
Fig 1 x 1
Fig 7 x 2		guitar 1 only
Fig 7 x 2
Fig 8 x 2
Fig 9 x 2
Fig 10 x 1
Fig 11 x 2		w/guitar lead
Fig 4 x 1		w/verse 7
Fig 1 x 1
Fig 5 x 1		w/verse 8
Fig 6 x 4		w/chorus
Fig 12 x 1
Добавлено: 26.04.2012
Другие материалы по этой песне:

Страница создана 26.04.2012
http://primanota.ru/countess/heilig-vuur-chords.htm
Привет, Гость.
Предлагаем пройти революционный курс по гитаре.
Подарок от PrimaNota.Ru, забирай!