PrimaNota.ru - самый крупный в мире бесплатный архив песенных текстов, аккордов, табулатур и нот


Counterparts - To The Grave - таба, видео

Регистрация Запомнить меня
Войти через:  Facebook Google Twitter Vk Yandex Mail.ru

Counterparts - To The Grave - таба, видео

Печатать
Просмотров: 93
To The Grave by Counterparts
Drop C
Done by ear and visual aid of this fella http://www.youtube.com/watch?v=dIX3QNGcar0
I tried to get the rhythm/patterns as colse as possible but listen to song for exact patterns
~ Bends
* Muted
\/ Slides
h Hammer-on
p Pull-off

|-----------------------0------------------0--0----|
|------0-------0---0------------0-------0---0--0---|
|--2--2-2--2--2-2-2-2--2-2--2--2-2--2--2-2------2--|
|-0-0-----0-0--------------0-0-----0-0-----------0-|
|--------------------------------------------------|
|--------------------------------------------------|

|------------------------------------------------------------------------------------|
|--------------------------------------------9\10-9-9--10\11-9-10-10/999-------------|
|-777-7------777-7---------------------------x-x--x-x--x--x--x-x--x--xxx--77-7---777-|
|-666-6------666-6-------2\4-4-2\4-4--\7p6---6\7--6-6--7-\9--6-7--7-/666--66-6---666-|
|-555-5-0000-555-5-0000--2\4-4-2\4-4------7-------------------------------55-5-0-555-|
|-------0000-------0000--2\4-4-2\4-4-------------------------------------------0-----|
                ****          ****                                                       
                                             *

|-------------------------------------------------------------------------------|
|-------------------------------------------------------------------------------|
|---------------------99-9---99-9---99-9-------7-7-7-7--7-----7-7-7-7-----7-7-7-|
|---2\4-4-2\4-4-\7p6--77-7---77-7---77-7--6-6--6-6-6-6--6-----6-6-6-6-----6-6-6-|
|-0-2\4-4-2\4-4-----7------0------0--------5-5-5-5-5-5--5-000-5-5-5-5-000-5-5-5-|
|-0-2\4-4-2\4-4------------0------0-----------------------000---------000-------|
                                                                   *      *              
                                ***         ***


|------------------------------------------------------------------------|
|---------------15-------------------------------------------------------|
|-7------6------17-----------7-----7-7-7-7-----7-7-7---------------------|
|-6------x------17-----------6-----6-6-6-6-----6-6-6---------------------|
|-5-0000-4-0000--------------5-000-5-5-5-5-000-5-5-5---------------------|
|---0000---0000----6-6~6~h7----000---------000--------18p0-000-18p0-18p0-|
    ****          ****                           ***                    ***

|---------------------------------------|
|---------------------------------------|
|---------------7-----7-7-7-7-----7-7-7-|
|---------------6-----6-6-6-6-----6-6-6-|
|-0-0-000-0-000-5-000-5-5-5-5-000-5-5-5-|
|-0-0-000-0-000---000---------000-------|
  *   ***   ***   ***         ***

|----------------------------------------------------|
|---------------15-----------------------------------|
|-7------6------17-----------7-----7-7-7-7-----9-9-9-|
|-6------x------17-----------6-----6-6-6-6-----7-7-7-|
|-5-0000-4-0000--------------5-000-5-5-5-5-000-5-5-5-|
|---0000---0000----6-6~6~h7----000---------000-------|
    ****          ****                               ***                        ***

|--------4---------------------4-----------4----------4---------------------|
|---------2---------------------2-----------2----------2--------------------|
|----------4---------------------4-----------4----------4-------------------|
|----------------------------------------------------------2\4-4-4--2\7-7-7-|
|-00-000-----000-000-0--00-000-----000-000-----000-000-----2\4-4-4--2\4-4-4-|
|-00-000-----000-000-0--00-000-----000-000-----000-000-----2\4-4-4--2\4-4-4-|
  ** ***     *** ***    ** ***      *** ***     *** ***

|--------4-----------5----------4---------------------|
|---------2-----------2----------2--------------------|
|----------4-----------4----------4-------------------|
|------------------------------------2\4-4-4--2\7-7-7-|
|-000-000-----000-000----000-000-----2\4-4-4--2\4-4-4-|
|-000-000-----000-000----000-000-----2\4-4-4--2\4-4-4-|
  *** ***     *** ***    *** ***

|-----------------------------------------------------4-----------5----------4\5-5-5-|
|------------------------------------------------------2-----------2-----------------|
|-------------------------------------------------------4-----------4----------------|
|----------------------------2\4-4-4--2\7-7-7----------------------------------------|
|----------------------------2\4-4-4--2\4-4-4--000-000-----000-000----000-000--------|
|-00-000-000-0-0-000-0000-0--2\4-4-4--2\4-4-4--000-000-----000-000----000-000--------|
  ** *** ***   * *** ****                                       *** ***     *** ***    ******


|-0--0-0--0--0--0-0-0---0--0-0--0--0--0-0-0--------------------------------------0--|
|-10-1010-10-10-9h1010--10-1010-10-10-9h1010-------------------------------10----10-|
|-9--9-9--9--9--9-9-9---9--9-9--9--9--9-9-9-----------------------------6h7--9p7-9--|
|---------------------------------------------7-77-7-7-777-6-66-6-6-666----------0--|
|---------------------------------------------4-44-4-4-444-2-22-2-2-222-------------|
|---------------------------------------------4-44-4-4-444-2-22-2-2-222-------------|

|--------------------------------------------------------------------------------|
|-10-1010-10-10-101010--10-1010-10-10-101010-------------------------------10----|
|-x--x----x--x--9-9-9---x--x-x--x--x--9-9-9-----------------------------6h7--9p7-|
|-7--7----7--7--7-7-7---7--7-7--7--7--7-7-7---7-77-7-7-777-6-66-6-6-666----------|
|---------------------------------------------4-44-4-4-444-2-22-2-2-222----------|
|---------------------------------------------4-44-4-4-444-2-22-2-2-222----------|


|----0-----0-----0---|I feel like this could take
|-----0-----0-----0--|the place of the higher chords
|--2---2-2---2-2---2-|in this section but that's just me
|-0-0---0-0---0-0----|
|--------------------|
|--------------------|

Only first time
|--------------|-\16---------------------------------\16h17--------------------------------|
|------17------|----17-----17------17------17--------------17--------------17------17------|
|-13h14--14p13-|------16/14---13h14---13h14---14p13----------16-14-13h14p13---13h14--14p13-|
|--------------|---------------------------------------------------------------------------|
|--------------|---------------------------------------------------------------------------|
|--------------|---------------------------------------------------------------------------|

|-0------------|-------------12-------0-|
|--17----------|---------------10---10--|
|----14--------|-------------------9----|
|------0---0-0-|x3-2\4-4-444------------|
|-------0--0-0-|---2\4-4-444------------|
|--------0-0-0-|---2\4-4-444------------|

|-----------------0-000--------------------------------------0-000------------12------|
|-----------------3-333--------------------------------------3-333--------------10-10-|
|-----------------2-222--------------------------------------2-222----------------9---|
|-----------------0-000-------2\4-4--7-----------------------0-000--2\4-4-2\4---------|
|-0-0-0-0-0000-0--------0-0-0-2\4-4---5p4h5--0-0-0-0-0000-0---------2\4-4-2\4---------|
|-0-0-0-0-0000-0--------0-0-0-2\4-4----------0-0-0-0-0000-0---------2\4-4-2\4---------|
                          **** *                                     **** *

|-0-0-0-0-0-0-0-0---------------------------------------------------12----|
|-1010101010101010-12~12~12~10~10~10~-9h10p9-9h10p9--9h10p9-----------10--|
|-9-9-9-9-9-9-9-9----------------------------------9-------9-9\10/9-----9-|
|-------------------------------------------------------------------------|
|-------------------------------------------------------------------------|
|-------------------------------------------------------------------------|


                                                      1st time      Add this 2nd time
|------0-0-0-0-0-0-0-0-0000000-0--|-----------------------|-------|You don't have to
|------10101010101010109999991010-|-----------------------|-------|go from 10 to 9 to 10
|------9-9-9-9-9-9-9-9-9999999-9--|x3---------------------|-------|I think he just does it
|---------------------------------|------------4-4--2-2-2-|-7-7-7-|cause it doesn't sound
|-0000----------------------------|---00000000-4-4--2-2-2-|-7-7-7-|like it in the song to me
|-0000----------------------------|---00000000-4-4--2-2-2-|-7-7-7-|
  ***                                                                   *******  *    * *
          * *

|-0-------------------------------10p00h9p00h7h00---------------------------h12~|
|-5-5~~55-55-55555555-5h7p5-55-55-----------------5h7p5-55-55-5555-5/2-2\3\5----|
|-------------------------------------------------------------------------------|
|-------------------------------------------------------------------------------|
|-------------------------------------------------------------------------------|
|-------------------------------------------------------------------------------|
Добавлено: 06.10.2013
Другие материалы по этой песне:
  • Аккорды и текст

Страница создана 06.10.2013
http://primanota.ru/counterparts/to-the-grave-chords.htm
Привет, Гость.
Предлагаем пройти революционный курс по гитаре.
Подарок от PrimaNota.Ru, забирай!