PrimaNota.ru - самый крупный в мире бесплатный архив песенных текстов, аккордов, табулатур и нот


Counterparts - Solace - таба, видео

Регистрация Запомнить меня
Войти через:  Facebook Google Twitter Vk Yandex Mail.ru

Counterparts - Solace - таба, видео

Печатать
Просмотров: 112
Solace by Counterparts

Tuning: CGCFAD

X = palm mute
x = dead note
~ = sustained

I feel pretty confident overall about this tab but of course I'm not perfect,
so if you hear anything that you think is different than what I've got tabbed, 
feel free to make a suggestion. I didn't even bother trying to do the outro, 
so if anyone wants to tackle that then be my guest and I'll add it on.

INTRO/CHORUS
D|-----------------------------------------------------------------------------|
A|-----------------------------------------------------------------------------|
F|---14-14-14-14-14-14-14-14-14-14-14-14-14-14-14-14-14-14-13-13-13-13-13-13---|
C|-----------------------------------------------------------------------------|
G|---12-12-12-12-12-12-12-12-12-12-12-12-12-12-12-12-12-12-11-11-11-11-11-11---|
C|-----------------------------------------------------------------------------|

D|-----------------------------------------------------------------------------|
A|-----------------------------------------------------------------------------|
F|---9-9-9-9-9-9-9-9-9-9-9-9---------------------------------------------------|
C|---------------------------0-0-0-0-0-0-0-0-0-0-0-0---------------------------|
G|---7-7-7-7-7-7-7-7-7-7-7-7-0-0-0-0-0-0-0-0-0-0-0-0---------------------------|
C|---------------------------0-0-0-0-0-0-0-0-0-0-0-0---------------------------| x2

VERSE ONE
D|-----------------------------------------------------------------------------|
A|-----------------------------------------------------------------------------|
F|-----------------------------------------------------------------------------|
C|-------7h9p7-------7h9p7-------7h9p7-------67h7p6----------------------------|
G|-----------------------------------------------------------------------------|
C|---4-4---------4-4---------4-4---------2-2-----------------------------------|

D|-----------------------------------------------------------------------------|
A|-----------------------------------------------------------------------------|
F|-----------------------------------------------------------------------------|
C|-------9h11p9------9h11p9------6h7p6-------67h7p6----------------------------|
G|-----------------------------------------------------------------------------|
C|---7-7---------7-7---------0-0---------0-0-----------------------------------| x2

D|-----------------------------------------------------------------------------|
A|-----------------------------------------------------------------------------|
F|-----------------------------------------------------------------------------|
C|---4-4-4-4-4---------------4-4-4-4-4---2-2-2-2-2-2---------------------------|
G|---4-4-4-4-4---------------4-4-4-4-4---2-2-2-2-2-2---------------------------|
C|---4-4-4-4-4---------------4-4-4-4-4---2-2-2-2-2-2---------------------------|

D|-----------------------------------------------------------------------------|
A|-----------------------------------------------------------------------------|
F|-----------------------------------------------------------------------------|
C|---7-7-7-7-7-7-7-7-7-7-7-7-0-0-0-0-0-0-0-0-0-0-0-0---------------------------|
G|---7-7-7-7-7-7-7-7-7-7-7-7-0-0-0-0-0-0-0-0-0-0-0-0---------------------------|
C|---7-7-7-7-7-7-7-7-7-7-7-7-0-0-0-0-0-0-0-0-0-0-0-0---------------------------|

D|-----------------------------------------------------------------------------|
A|-----------------------------------------------------------------------------|
F|-----------------------------------------------------------------------------|
C|---4-4-4-4-4---------------4-4-4-4-4---2-2-2-2-2-2---------------------------|
G|---4-4-4-4-4---------------4-4-4-4-4---2-2-2-2-2-2---------------------------|
C|---4-4-4-4-4---------------4-4-4-4-4---2-2-2-2-2-2---------------------------|

D|-----------------------------------------------------------------------------|
A|---------------------------------------9-9-9-9-9-----------------------------|
F|---9-9-9-9-9---------------9-9-9-9-9-----------------------------------------|
C|---7-7-7-7-7---------------7-7-7-7-7-----------------------------------------|
G|---5-5-5-5-5---------------5-5-5-5-5-----------------------------------------|
C|-----------------------------------------------------------------------------|

CHORUS ONE
D|-----------------------------------------------------------------------------|
A|-----------------------------------------------------------------------------|
F|---14-14-14-14-14-14-14-14-14-14-14-14-14-14-14-14-14-14-13-13-13-13-13-13---|
C|-----------------------------------------------------------------------------|
G|---12-12-12-12-12-12-12-12-12-12-12-12-12-12-12-12-12-12-11-11-11-11-11-11---|
C|-----------------------------------------------------------------------------|

D|-----------------------------------------------------------------------------|
A|-----------------------------------------------------------------------------|
F|---9-9-9-9-9-9-9-9-9-9-9-9---------------------------------------------------|
C|---------------------------0-0-0-0-0-0-0-0-0-0-0-0---------------------------|
G|---7-7-7-7-7-7-7-7-7-7-7-7-0-0-0-0-0-0-0-0-0-0-0-0---------------------------|
C|---------------------------0-0-0-0-0-0-0-0-0-0-0-0---------------------------| x2

VERSE TWO
D|-----------------------------------------------------------------------------|
A|-----------------------------------------------------------------------------|
F|-----------------------------------------------------------------------------|
C|---4-4-4-4-4-4-4-4-4-4-4-4-4-4-4-4-4-4-2-2-2-2-2-2---------------------------|
G|---4-4-4-4-4-4-4-4-4-4-4-4-4-4-4-4-4-4-2-2-2-2-2-2---------------------------|
C|---4-4-4-4-4-4-4-4-4-4-4-4-4-4-4-4-4-4-2-2-2-2-2-2---------------------------|
     X X X X X X X X X X X X X X X X X X X X X X X X

D|-----------------------------------------------------------------------------|
A|-----------------------------------------------------------------------------|
F|-----------------------------------------------------------------------------|
C|---7-7-7-7-7-7-7-7-7-7-7-7-0-0-0-0-0-0-0-0-0-0-0~----------------------------|
G|---7-7-7-7-7-7-7-7-7-7-7-7-0-0-0-0-0-0-0-0-0-0-0~----------------------------|
C|---7-7-7-7-7-7-7-7-7-7-7-7-0-0-0-0-0-0-0-0-0-0-0~----------------------------| x2
     X X X X X X X X X X X X   X X X X X X X   X

D|-----------------------------------------------------------------------------|
A|----------------9~------------------------------------------9----------------|
F|---9~--------------------9---9~-----------------9----------------------------|
C|--------7-6-7--------------7------7-6-7-6h7p6h7-----6h7p6h7---7--------------|
G|---------------------5/7-----------------------------------------------------|
C|-----------------------------------------------------------------------------|

D|-----------------------------------------------------------------------------|
A|----------------9~-------7-9-------------------------------------------------|
F|---9~-------------------------9~---------------------------------------------|
C|--------7-6-7----------------------7-6-7-6~----------------------------------|
G|---------------------5/7-----------------------------------------------------|
C|-----------------------------------------------------------------------------|

CHORUS TWO
D|-----------------------------------------------------------------------------|
A|-----------------------------------------------------------------------------|
F|---14-14-14-14-14-14-14-14-14-14-14-14-14-14-14-14-14-14-13-13-13-13-13-13---|
C|-----------------------------------------------------------------------------|
G|---12-12-12-12-12-12-12-12-12-12-12-12-12-12-12-12-12-12-11-11-11-11-11-11---|
C|-----------------------------------------------------------------------------|

D|-----------------------------------------------------------------------------|
A|-----------------------------------------------------------------------------|
F|---9-9-9-9-9-9-9-9-9-9-9-9---------------------------------------------------|
C|---------------------------0-0-0-0-0-0-0-0-0-0-0-0---------------------------|
G|---7-7-7-7-7-7-7-7-7-7-7-7-0-0-0-0-0-0-0-0-0-0-0-0---------------------------|
C|---------------------------0-0-0-0-0-0-0-0-0-0-0-0---------------------------| x2

D|---12-12-12-12-12-12-------------------16-16-16-16-16-16------12----12-------|
A|---------------------10-10-10-10-10-10-------------------9h10----10----10----|
F|-----------------------------------------------------------------------------|
C|-----------------------------------------------------------------------------|
G|-----------------------------------------------------------------------------|
C|-----------------------------------------------------------------------------|

D|---12-12-12-12-12-12-----------------------------12-------------12/16--------|
A|---------------------10-10-10-10-10-10-9h10p9h10----------9h10---------------|
F|------------------------------------------------------9h11-------------------|
C|-----------------------------------------------------------------------------|
G|-----------------------------------------------------------------------------|
C|-----------------------------------------------------------------------------|

D|---12-12-12-12-12-12-------------------16-16-16-16-16-16------12----12-------|
A|---------------------10-10-10-10-10-10-------------------9h10----10----10----|
F|-----------------------------------------------------------------------------|
C|-----------------------------------------------------------------------------|
G|-----------------------------------------------------------------------------|
C|-----------------------------------------------------------------------------| 

D|---17-17-17-17-17-17-16-16-16-16-16-16---------------------------------------|
A|---------------------------------------10---10---10\-------------------------|
F|-----------------------------------------------------------------------------|
C|-----------------------------------------------------------------------------|
G|-----------------------------------------------------------------------------|
C|-----------------------------------------------------------------------------|

BREAK (DRUM PART)

BRIDGE (TIME SIGNATURE CHANGE)
D|-----------------------------------------------------------------------------|
A|---9-9-9-9-9-----------------9-9-9-9---------------9-9-9---9-----------------|
F|---x-x-x-x-x-----------------x-x-x-x---------------x-x-x---x-----------------|
C|---6-6-6-6-6-----------------6-6-6-6---------------6-6-6---6-----------------|
G|---5-5-5-5-5-0-0-0-0-0-0-0-0-5-5-5-5-0-0-0-0-0-0-0-5-5-5-0-5-0---------------|
C|-------------0-0-0-0-0-0-0-0---------0-0-0-0-0-0-0-------0---0---------------|
               X X X X X X X X         X X X X X X X       X   X                

D|-----------------------------------------------------------------------------|
A|---9-9-9-9-9-----------------9-9-9-9---------------9-9-9---9-----------------|
F|---x-x-x-x-x-----------------x-x-x-x---------------x-x-x---x-----------------|
C|---6-6-6-6-6-----------------6-6-6-6---------------6-6-6---6-----------------|
G|---5-5-5-5-5-0-0-0-0-0-0-0-0-5-5-5-5-0-0-0-0-0-0-0-5-5-5-0-5-----------------|
C|-------------0-0-0-0-0-0-0-0---------0-0-0-0-0-0-0-------0-------------------|
               X X X X X X X X         X X X X X X X       X                          

D|-----------------------------------------------------------------------------|
A|---9-9-9-9-9-----------------9-9-9-9---------------9-9-9---9-----------------|
F|---x-x-x-x-x-----------------x-x-x-x---------------x-x-x---x-----------------|
C|---7-7-7-7-7-----------------7-7-7-7---------------7-7-7---7-----------------|
G|---5-5-5-5-5-0-0-0-0-0-0-0-0-5-5-5-5-0-0-0-0-0-0-0-5-5-5-0-5-0---------------|
C|-------------0-0-0-0-0-0-0-0---------0-0-0-0-0-0-0-------0---0---------------|
               X X X X X X X X         X X X X X X X       X   X                     

D|-----------------------------------------------------------------------------|
A|---9-9-9-9-9-----------------9-9-9-9---------------9-9-9---------------------|
F|---x-x-x-x-x-----------------x-x-x-x---------------x-x-x---------------------|
C|---6-6-6-6-6-----------------6-6-6-6---------------6-6-6---------------------|
G|---5-5-5-5-5-0-0-0-0-0-0-0-0-5-5-5-5-0-0-0-0-0-0-0-5-5-5-0-0~----------------|
C|-------------0-0-0-0-0-0-0-0---------0-0-0-0-0-0-0-------0-0~----------------|
               X X X X X X X X         X X X X X X X       X X                       

D|-----------------------------------------------------------------------------|
A|---9-9-9-9-9-----------------9-9-9-9---------------9-9-9---9-----------------|
F|---x-x-x-x-x-----------------x-x-x-x---------------x-x-x---x-----------------|
C|---7-7-7-7-7-----------------7-7-7-7---------------7-7-7---7-----------------|
G|---5-5-5-5-5-0-0-0-0-0-0-0-0-5-5-5-5-0-0-0-0-0-0-0-5-5-5-0-5-0---------------|
C|-------------0-0-0-0-0-0-0-0---------0-0-0-0-0-0-0-------0---0---------------|
               X X X X X X X X         X X X X X X X       X   X                     

D|-----------------------------------------------------------------------------|
A|---9-9-9-9-9-----------------9-9-9-9---------------9-9-9-9-------------------|
F|---x-x-x-x-x-----------------x-x-x-x---------------x-x-x-x-------------------|
C|---6-6-6-6-6-----------------6-6-6-6---------------6-6-6-6-------------------|
G|---5-5-5-5-5-0-0-0-0-0-0-0-0-5-5-5-5-0-0-0-0-0-0-0-5-5-5-5-------------------|
C|-------------0-0-0-0-0-0-0-0---------0-0-0-0-0-0-0---------------------------|
               X X X X X X X X         X X X X X X X
Добавлено: 14.10.2015
Другие материалы по этой песне:

Страница создана 14.10.2015
http://primanota.ru/counterparts/solace-chords.htm
Привет, Гость.
Предлагаем пройти революционный курс по гитаре.
Подарок от PrimaNota.Ru, забирай!