PrimaNota.ru - самый крупный в мире бесплатный архив песенных текстов, аккордов, табулатур и нот


Counterparts - Lost - таба, видео

Регистрация Запомнить меня
Войти через:  Facebook Google Twitter Vk Yandex Mail.ru

Counterparts - Lost - таба, видео

Печатать
Просмотров: 116
-------------------------------------------------------------------------------
                             Lost - Counterparts
-------------------------------------------------------------------------------
Tabbed by: Connor Billups
E-mail: BilltotheUps@hotmail.com

Tuning: Drop C

I worked this song out a while back, I noticed there were no tabs up for it so I thought I would
put some up since its such a fun song to play. I know that Counterparts don't actually
play it in this tuning but it was much easier for me to do it in Drop C and it works fine 
for playing along to it.

** https://www.youtube.com/watch?v=tPMkNUcbtms **

The above link is a cover I put up of the song on YouTube. At the bottom of each tabbed out 
section I've put the time frame that it represents in relation to the video. I thought this
would act as a good reference.

If it appears I've made any typing errors, or you think you have worked a better way of playing               
a part, please let me know and I'd be happy to update it.

Cheers, enjoy.


D|---------------------------------------------------------------------------|
A|---------------------------------------------------------------------------|
F|------7------------------------------------------------------0-------------|
C|------5-(x19)-------------------------------------12-------------0---------|
G|------9-------------------------------------3/7/10--9--9*9*9*--9*----------|
C|---------------------------------------------------------------------------|
(0.10-0.20)

D|---------------------------------------------------------------------------|
A|---------------------------------------------------------------------------|
F|-11------12------11------12------11------12-11------12---------------------|
C|---(x9)----(x3)----(x3)----(x3)----(x3)---------------(x9)-----------------|
G|-9-------10------9-------10------9-------10-9-------10---------------------|
C|---------------------------------------------------------------------------|
(0.20-0.27)

D|-----------------------------------------------------------------------------|
A|-----------------------------------------------------------------------------|
F|-16------11------0-----------------------------------------------------------|
C|---(x3)------0-0-----------------------------------------12------------------|
G|-14------9---9-----9----10*9--10*9--10*9--10*9--10*9---10*--10---------------|
C|----------------------9*----9*----9*----9*----9*-----9*----------------------|
(0.27-0.35)

D|---------------------------------------------------------------------------|
A|---------------------------------------------------------------------------|
F|---------------------------------------------------------------------------|
C|--2------4------12*-12------12*---12---------------------------------------|
G|--2-(x6)-5-(x6)-10*-10-(x5)-10*-10--10-------------------------------------|
C|--2------4------10*-10------10*-------10-----------------------------------|
(0.35-0.40)

D|-----------------------------------------------------------------------------|
A|-----------------------------------------------------------------------------|
F|----------------11*--11-----11*-11h12p11----------0--------------0-----------|
C|--2------4------12*--12-----12*---------12----5*----5---5----5*----5---------|
G|--2-(x6)-5-(x6)-9*---9-(x5)-9*--------------7*--7*----7----9*--9*----9-------|
C|--2------4------9*---9------9*-----------------------------------------------|
(0.40-0.48)

D|--------------------------------------------------------------------|
A|--------------------------------------------------------------------|
F|--------------------------------------------------------------------|
C|--12*-12------12*-12------------------------------------------------|
G|--10*-10-(x6)-10*-9-------------------------------------------------|
C|--10*-10------10*-9-------------------------------------------------|
(0.48-0.50)

D|--------------------------------------------------------------------|
A|--------------------------------------------------------------------|
F|--------------------------------------------------------------------|
C|---------12*------12*------12*------12*------12*--------------------|
G|----10*10*---10*10*---10*10*---10*10*---10*10*---10-----------------|
C|--------------------------------------------------------------------|
(0.50-0.53)

D|--------------------------------------------------------------------|
A|--------------------------------------------------------------------|
F|---------------------12-----11--------------12-----11---------------|
C|-----12*----12*--------(x4)---(x4)--12--------(x2)---(x2)-12--------|
G|-9*9*---9*9*---9*9*--10-----9-------10-(x3)-10-----9------10-(x6)---|
C|------------------------------------10--------------------10--------|
(0.53-0.58)

D|----------------------------------------------------------------------------|
A|----------------------------------------------------------------------------|
F|--9-7-9-7----------------9-7-9-7-11-----------------------------------------|
C|----------9-10-12-12----------------12-12*(x5)-12--7-7*(x5)-7--12-----------|
G|------------------10-(x3)-----------10-10*-----10--5-5*-----5--10-(x3)------|
C|------------------10-------------------------------------------10-----------|
(0.58-1.03)

D|---------------------------------------------------------------------------|
A|---------------------------------------------------------------------------|
F|-12-----11-----------12-11-12----------------------------------------------|
C|--(x2)---(x2)-12-------------12-14-12----12-12*(x5)-12--7-7*(x5)-7---------|
G|-10-----9-----10-(x6)-----------------14-10-10*-----10--5-5*-----5---------|
C|--------------10-----------------------------------------------------------|
(1.03-1.09)

D|---------------------------------------------------------------------------|
A|---------------------------------------------------------------------------|
F|---------------------------------------------------------------------------|
C|-2------4------12--12*-------12--12*------12-12*-------12-12*-12-----------|
G|-2-(x5)-5-(x5)-10--10*-(x11)-10--10*-(x2)-10-10*-(x11)-10-10*-10-----------|
C|-2------4------10--10*-------10--10*------10-10*-------10-10*-10-----------|
(1.09-1.17)

D|----------------------------------------------------------------------------------------|
A|----------------------------------------------------------------------------------------|
F|----------------------------------------------------------------------------------------|
C|-2------4--------12---12---12---12---12---2------4----------12----12----12----12----12--|
G|-2-(x5)-5-(x5)--9----9----9----9----9---9-2-(x5)-5-(x5)-9-10--9-10--9-10--9-10--9-10--10|
C|-2------4-----10---10---10---10---10------2------4--------------------------------------|
(1.17-1.27)

D|---------------------------------------------------------------------------------|
A|---------------------------------------------------------------------------------|
F|--------------------------------------------------12----12----16-----16-----16---|
C|-14-14-14-14-14-14-14-14-12-12-12-12-9h10p9---9p10--9p10--9p10--13p14--13p14--14-|
G|-------------------------------------------10------------------------------------|
C|---------------------------------------------------------------------------------|
(1.27-1.32)

D|---------------------------------------------------------------------------------|
A|---------------------------------------------------------------------------------|
F|---------------------------------------------------------------------------------|
C|--2------4------12-12*-------12-12*-12------12*------12--------------------------|
G|--2-(x6)-5-(x6)-10-10*-(x10)-10-10*-10-(x2)-10*-(x5)-10-(x3)---------------------|
C|--2------4------10-10*-------10-10*-10------10*------10--------------------------|
(1.32-1.38)

D|---------------------------------------------------------------------------|
A|---------------------------------------------------------------------------|
F|------7------------------------------------------------------0-------------|
C|------5-(x27)-------------------------------------12-------------0---------|
G|------9-------------------------------------3/7/10--9--9*9*9*--9*----------|
C|---------------------------------------------------------------------------|
(1.38-1.49)

D|---------------------------------------------------------------------------|
A|---------------------------------------------------------------------------|
F|-11-11-----11-----12-10-14-10-12-10--12--12-----12----16-----11-----0------|
C|------(x4)---(x4)--------------------------(x4)---(x4)--(x3)-----0-0-------|
G|-9--9------9------10-9--12-9--10-9---10--10-----10----14-----9---9----9----| 
C|---------------------------------------------------------------------------|
(1.49-2.01)
************************************
Добавлено: 01.08.2015
Другие материалы по этой песне:
  • Аккорды и текст

Страница создана 01.08.2015
http://primanota.ru/counterparts/lost-chords.htm
Привет, Гость.
Предлагаем пройти революционный курс по гитаре.
Подарок от PrimaNota.Ru, забирай!