PrimaNota.ru - самый крупный в мире бесплатный архив песенных текстов, аккордов, табулатур и нот


Counterparts - A Plea A Promise - таба, видео

Регистрация Запомнить меня
Войти через:  Facebook Google Twitter Vk Yandex Mail.ru

Counterparts - A Plea A Promise - таба, видео

Печатать
Просмотров: 147
Just the first part of the song, but hey its better than nothing. First tab, sorry 
if any mistakes.

-------------------------------------------------------------------------------
                          A Plea: A Promise - Counterparts
-------------------------------------------------------------------------------
Tabbed by: Trank

Tuning:Drop C

4/4-Tempo:200
Riff 1
x|----------------------------------------------|
x|----------------------------------------------|
x|----------------------10------10------10------|
x|------7-------8----------8-------8-------8----|
x|10-10---10-10---10-10------10------10------10-|
x|----------------------------------------------|

x|-------------------------------------|
x|-------------------------------------|
x|----------------10-----10-----10-----|
x|----7-----8--------8------8------8---|
x|6-6---6-6---6-6------6------6------6-|
x|-------------------------------------|

x|----------------------------------------------|
x|----------------------------------------------|
x|----------------------10------10------10------|
x|------7-------8----------8-------8-------8----|
x|10-10---10-10---10-10------10------10------10-|
x|----------------------------------------------|

x|------------------------|
x|------------------------|
x|----------------10~-----|
x|----7-----8------8~-----|
x|6-6---6-6---6-6--6~-----|
x|------------------------|

8/4-Tempo:200
Riff 2
x|------------------------------------------------|
x|------------------------------------------------|
x|12-12-12-12-12-12-12-12-14-14-14-14-15-15-15-15-|
x|------------------------------------------------|
x|10-10-10-10-10-10-10-10-12-12-12-12-13-13-13-13-|
x|------------------------------------------------|

x|----------------------------------------|
x|----------------------------------------|
x|10-10-10-10-10-10-10-10-8-8-8-8-8-8-8-8-|
x|----------------------------------------|
x|-8--8--8--8--8--8--8--8-6-6-6-6-6-6-6-6-|
x|----------------------------------------|

x|------------------------------------------------|
x|------------------------------------------------|
x|12-12-12-12-12-12-12-12-14-14-14-14-15-15-15-15-|
x|------------------------------------------------|
x|10-10-10-10-10-10-10-10-12-12-12-12-13-13-13-13-|
x|------------------------------------------------|
7/4-Tempo:200
x|------------------------------------------|
x|------------------------------------------|
x|17-17-17-17-17-17-17-17-15-15-15-15-14-14-|
x|------------------------------------------|
x|15-15-15-15-15-15-15-15-13-13-13-13-12-12-|
x|------------------------------------------|
Добавлено: 30.06.2013
Другие материалы по этой песне:

Страница создана 30.06.2013
http://primanota.ru/counterparts/a-plea-a-promise-chords.htm
Привет, Гость.
Предлагаем пройти революционный курс по гитаре.
Подарок от PrimaNota.Ru, забирай!