PrimaNota.ru - самый крупный в мире бесплатный архив песенных текстов, аккордов, табулатур и нот


Count Zero - Radium Eyes - таба, бас-таба, видео

Регистрация Запомнить меня
Войти через:  Facebook Google Twitter Vk Yandex Mail.ru

Count Zero - Radium Eyes - таба, бас-таба, видео

Печатать
Просмотров: 160
Уроки эстрадного вокала в Санкт-Петербурге
Okay, I emailed Count Zero asking them for tabs because I couldn't find ANY of them 
and they sent this:

Radium Eyes
Count Zero

6/4 Time
h=hammer-on
p=pull-off
\=slide

Intro 1
|--------------------|--------------------|
|--------------------|--------------------|
|--------------------|--------------------|
|--------------------|--------------------|
|-3-3----3-3--6--1-1-|-3-3----3-3--6--1-1-|
|-3-3----3-3--6--1-1-|-3-3----3-3--6--1-1-|

|--------------------|--------------------|
|--------------------|--------------------|
|--------------------|--------------------|
|--------------------|--------------------|
|-3-3----3-3--6--1-1-|-3-3----3-3--6------|
|-3-3----3-3--6--1-1-|-3-3----3-3--6------|

Verse 1
|--------------------|--------------------|
|--------------------|--------------------|
|--------------------|--------------------|
|--------------------|--------------------|
|-8------8-8--8------|-8------8-8--8------|
|-6------6-6--6------|-6------6-6--6------|

|--------------------|--------------------|
|--------------------|--------------------|
|--------------------|--------------------|
|--------------------|--------------------|
|-8------8-8--8------|-8------8-8--8--6-6-|
|-6------6-6--6------|-6------6-6--6--4-4-|

|--------------------|--------------------|
|--------------------|--------------------|
|--------------------|--------------------|
|--------------------|--------------------|
|-5-5----5-5--5------|-4-4---4-4-2-2-4----|
|-3-3----3-3--3------|-2-2---2-2-0-0-2----|

|--------------------|--------------------|
|--------------------|--------------------|
|--------------------|--------------------|
|--------------------|--------------------|
|-5-5----5-5--5------|-4-4--4-4-2----10-8-|
|-3-3----3-3--3------|-2-2--2-2-0----8--6-|

Verse 2
|--------------------|--------------------|
|--------------------|--------------------|
|--------------------|--------------------|
|-8-8----8-8--8------|-8-8----8-8--8------|
|-8-8----8-8--8------|-8-8----8-8--8------|
|-6-6----6-6--6------|-6-6----6-6--6------|

|--------------------|--------------------|
|--------------------|--------------------|
|--------------------|--------------------|
|-8-8----8-8--8------|-8-8----8-8--8--6-6-|
|-8-8----8-8--8------|-8-8----8-8--8--6-6-|
|-6-6----6-6--6------|-6-6----6-6--6--4-4-|

|-----12------12------12---|-----11------11---------|
|---13--13--13--13--13--13-|---13--13--13--13-------|
|-13------13------13-------|-12------12------12-----|
|--------------------------|------------------------|
|--------------------------|------------------------|
|--------------------------|------------------------|

|-----12------12------12---|-----11------11---------|
|---13--13--13--13--13--13-|---13--13--13--13-------|
|-13------13------13-------|-12------12------12-----|
|--------------------------|------------------------|
|--------------------------|------------------------|
|--------------------------|------------------------|

Chorus 1
|--------------------|--------------------|
|--------------------|--------------------|
|--4p3-----3--4------|--4p3-----3--4------|
|--------------------|--------------------|
|--6-------6--6------|--6-------6--6------|
|--3-----3-3--6------|--3-----3-3--6------|

|--------------------|--------------------|--------------------|
|--------------------|--------------------|--------------------|
|--4p3-----3--4------|--4p3-----3--4------|--4p3-----3--4------|
|--------------------|--------------------|------------------8-|
|--6-------6--6------|-----6p3--6--6------|--6-------6--6------|
|--3-----3-3--6----3-|--------3-3--6------|--3-----3-3--6------|

Intro 2
|--------------------|-------------------|
|--------------------|-------------------|
|--------------------|-------------------|
|--------------------|-------------------|
|-8-8----8-8--8------|-8-8----8-8--8-----|
|-6-6----6-6--6------|-6-6----6-6--6-----|

|--------------------|--------------------------|
|--------------------|--------------------------|
|--------------------|--------------------------|
|--------------------|-3-3-6-6-8-8-10-10--13-13-|
|-8-8----8-8--8------|-1-1-4-4-6-6-8--8---11-11-|
|-6-6----6-6--6------|--------------------------|

Verse 3
|--------------------|--------------------|
|--------------------|--------------------|
|--------------------|--------------------|
|-8-8----8-8--8------|-8-8----8-8--8--6-6-|
|-8-8----8-8--8------|-8-8----8-8--8--6-6-|
|-6-6----6-6--6------|-6-6----6-6--6--4-4-|

|--------------------|--------------------|
|--------------------|--------------------|
|--------------------|--------------------|
|-8-8----8-8--8------|-8-8----8-8--8--6-6-|
|-8-8----8-8--8------|-8-8----8-8--8--6-6-|
|-6-6----6-6--6------|-6-6----6-6--6--4-4-|

|--------------------|--------------------|
|--------------------|--------------------|
|--------------------|--------------------|
|-5-5----5-5--5------|-4-4----4-4-1-1-4---|
|-5-5----5-5--5------|-4-4----4-4-1-1-4---|
|-3-3----3-3--3------|-2-2----2-2-----2---|

|--------------------|----------------------|
|--------------------|----------------------|
|--------------------|----------------------|
|-5-5----5-5--5------|-4-4----4-4-1----10-8-|
|-5-5----5-5--5------|-4-4----4-4-1----10-8-|
|-5-5----5-5--5------|-4-4----4-4-1----10-8-|

Chorus 2:
|--------------------|--------------------|
|--------------------|--------------------|
|--------------------|--------------------|
|-3-3----3-3--6----1-|-3-3----3-3--6----1-|
|-3-3----3-3--6----1-|-3-3----3-3--6----1-|
|-3-3----3-3--6----1-|-3-3----3-3--6----1-|

|--------------------|---------------------|
|--------------------|---------------------|
|--------------------|---------------------|
|-3-3----3-3--6----1-|-3-3----3-4-5-6--1-1-|
|-3-3----3-3--6----1-|-3-3----3-4-5-6--1-1-|
|-3-3----3-3--6----1-|-3-3----3-4-5-6--1-1-|

Solo Section (x3)
|--------------------|--------------------|
|--------------------|--------------------|
|--------------------|--------------------|
|--------------------|--------------------|
|-2-2----2-2--5----0-|-2-2----2-2--5----0-|
|-2-2----2-2--5----0-|-2-2----2-2--5----0-|



|--------------------|---------------------|
|--------------------|---------------------|
|--------------------|---------------------|
|--------------------|---------------------|
|-2-2----2-2--5----0-|-2-2----2-3-4-5--0-0-|
|-2-2----2-2--5----0-|-2-2----2-3-4-5--0-0-|

|---------------------|
|---------------------|
|---------------------|
|-4—-9\4------2h4-----|
|---------4h5-------4-|
|---------------------|

Chorus 3
|-9p8-----------------|--------------------|
|----9p7--------------|--------------------|
|--------7------------|--------------------|
|----------9p8--------|-3-3----3-3--6----1-|
|--------------9p7----|-3-3----3-3--6----1-|
|---------------------|-3-3----3-3--6----1-|

|-9p8-----------------|---------------------|
|----9p7--------------|---------------------|
|--------7------------|---------------------|
|----------9p8--------|-3-3----3-4-5-6--1-1-|
|--------------9p7----|-3-3----3-4-5-6--1-1-|
|---------------------|-3-3----3-4-5-6--1-1-|

|-9p8-----------------|--------------------|
|----9p7--------------|--------------------|
|--------7------------|--------------------|
|----------9p8--------|-3-3----3-3--6----1-|
|--------------9p7----|-3-3----3-3--6----1-|
|---------------------|-3-3----3-3--6----1-|

|-9p8-----------------|---------------------|
|----9p7--------------|---------------------|
|--------7------------|---------------------|
|----------9p8--------|-3-3----3-4-5-6--1-1-|
|--------------9p7----|-3-3----3-4-5-6--1-1-|
|---------------------|-3-3----3-4-5-6--1-1-|

Outro (x4)
|-------3--------------|-----3-------------6---|
|---------3-5-6—5p3--1-|---------3-5-6—--------|
|-2h3------------------|--2h3----------5/6-----|
|----------------------|-----------------------|
|----------------------|-----------------------|
|----------------------|-----------------------|

P.S. My first tab; please rate fairly

P.P.S. Go to Count Zero's site at http://www.count-zero.com/
Добавлено: 05.05.2012
Другие материалы по этой песне:

Страница создана 30.03.2012
http://primanota.ru/count-zero/radium-eyes-chords.htm
Привет, Гость.
Предлагаем пройти революционный курс по гитаре.
Подарок от PrimaNota.Ru, забирай!