PrimaNota.ru - самый крупный в мире бесплатный архив песенных текстов, аккордов, табулатур и нот


Coryell, Larry - 1+2 Blues - аккорды и текст, таба, видео

Регистрация Запомнить меня
Войти через:  Facebook Google Twitter Vk Yandex Mail.ru

Coryell, Larry - 1+2 Blues - аккорды и текст, таба, видео

Печатать
Просмотров: 168
1+2 Blues
Coryell, Larry
		   From the acoustic guitar mailing list...

=========================================================================

Here's the tab to a Larry Coryell tune called 1+2 Blues.  It's named for
the scale it's mostly based on (the 1+2 diminished scale).

let ring, rock feel (straight eighths)

E------------------------|----------1-----------0--
B-------------------1--0-|----0--1--------3--------
G-------2--1-------------|-4--------------------3--
D-------------0--2-------|-------------------------
A----2-------------------|-------------------------
E-0----------------------|-------------------------
  1  &  2  &  3  &  4  &   1  &  2  &  3  &  4  &

E------------------------|-------------------------
B----0-------------------|-------------------------
G----------0--1----------|-------------------------
D------4---------0--2--3-|-------------------------
A------------------------|----------------1--2-----
E------------------------|----0--1--3--4-----------
  1  &  2  &  3  &  4  &   1  &  2  &  3  &  4  &

E------------------------|----------6-----3-----0--
B-------------------6--5-|-4--5--6-----------------
G-------7--6-------------|----------------------3--
D-------------5--7-------|-------------------------
A-0--7-------------------|-------------------------
E------------------------|-------------------------
  1  &  2  &  3  &  4  &   1  &  2  &  3  &  4  &

E------------------------|-------------------------
B----0-------------------|-------------------------
G----------0--1----------|-------------------------
D------4---------0--2--3-|-------------------------
A------------------------|----------------1--2-----
E------------------------|----0--1--3--4-----------
  1  &  2  &  3  &  4  &   1  &  2  &  3  &  4  &

E----------------10-7----|-9--6--------------------
B----------------------7-|-------6--8--------------
G----------7--8----------|-------------6--7--------
D----7--9----------------|-------------------8--6--
A-8----------------------|-------------------------
E------------------------|-------------------------
  1  &  2  &  3  &  4  &   1  &  2  &  3  &  4  &

E-------------------------------|-----------------------------
B-------------------------------|-----------------------------
G-------------------------------|-----------------------------
D-------------------------------|---------------2--3--5--6----
A----------------1--2--4--5-----|---1--2--4--5----------------
E----0--2--3--4---------------- |-----------------------------
  1  &  2  &  3  &  4  e  &  a   1  &  2  &  3  &  4  e  &  a

repeat 1x then ad lib solos

It may sound a little weird at first, but when played steadily at tempo
(quarter note = ~180 beats per min.), this piece really crackles.

-Bo Parker
parker_b%aplvax.span@fedex.msfc.nasa.gov     
Добавлено: 10.09.2013
Вам также может быть интересно:
Другие материалы по этой песне:
  • Аккорды и текст

Страница создана 06.07.2012
http://primanota.ru/coryell-larry/12-blues-chords.htm
Привет, Гость.
Предлагаем пройти революционный курс по гитаре.
Подарок от PrimaNota.Ru, забирай!