PrimaNota.ru - самый крупный в мире бесплатный архив песенных текстов, аккордов, табулатур и нот


Cortellesi Paola - Scema - таба, видео

Регистрация Запомнить меня
Войти через:  Facebook Google Twitter Vk Yandex Mail.ru

Cortellesi Paola - Scema - таба, видео

Печатать
Просмотров: 117
		   SCEMA
Britney Spears alias Paola Cortellesi
(sulla musica di "crazy" di Britney spears)

giovanotto, mi attizzi lo sai
tu hai qualcosa che io non ho mai
giovanotto, tu mi fai ingrifar
mi piaci troppo dai lasciati amar

(prechorus)
ogni volta che mi guardi
perdo il controllo non vivo più

(chorus)
mi rendi scema mi manchi sai
sono eccitata non dormo mai
oh oh oh scema, una poraccia [ndr. dal romanesco=poveraccia]
ciccio se ti penso non resisto più

dimmi che sei dentro me
che son la sola che vuoi veder
dimmi che mi allieterai
che se ti acchiappo non mi sfuggirai

(prechorus)
ogni volta he ti guardo
ho le vampate ti slinguerei

(chorus)
mi rendi scema...[non si capisce bene perchè ci parla sopra la gialappa's]
sono eccitata fatti sotto dai
scxema non mi caghi mai mannaggia
bimbo che ti costa perchè non la vuoi?

MAIN CHORDS
(per la strofa e il prechorus è sempre questo giro)

    C5 F5 G5 G#5    G5    B5 C5
e-|----------------------------------|
B-|----------------------------------|
G-|-5---------------------4-5-5------|
D-|-5---3-5-6-6-----5---5-4-5-5------|
A-|-3---3-5-6-6-----5---5-2-3-3------|
E-|-----1-3-4-4-----3---3------------|

CHORUS

    C5 F5 G5 G#5    A#5  D5 D#5 D5
e-|----------------------------------|
B-|----------------------------------|
G-|-5---------------------7-8---7----|
D-|-5---3-5-6-6-----8---8-7-8---7----|
A-|-3---3-5-6-6-----8---8-5-6---5----|
E-|-----1-3-4-4-----6---6------------|
     
Добавлено: 06.06.2013
Другие материалы по этой песне:
  • Аккорды и текст

Страница создана 06.06.2013
http://primanota.ru/cortellesi-paola/scema-chords.htm
Привет, Гость.
Предлагаем пройти революционный курс по гитаре.
Подарок от PrimaNota.Ru, забирай!