PrimaNota.ru - самый крупный в мире бесплатный архив песенных текстов, аккордов, табулатур и нот


Corrosion Of Conformity - Zippo - текст песни, таба, видео

Регистрация Запомнить меня
Войти через:  Facebook Google Twitter Vk Yandex Mail.ru

Corrosion Of Conformity - Zippo - текст песни, таба, видео

Печатать
Просмотров: 132
Artist:    Corrosion Of Conformity
Song:      Zippo
Album:     America's Volume Dealer
Tabbed by: MangeuDePoutine@hotmail.com
Tunning:   Dropped D

1 = E      4 = D
2 = B      5 = A
3 = G      6 = D

----- Rhytm -----

0:04 - 0:08

1:-------------------------------|\
2:-------------------------------| \
3:-------------------------------|  \ You can slide down last note ( A# Note ) .
4:--X-10-X-X-10--5\----X-8-X-X-8-|  /
5:--X-10-X-X-10--5\----X-8-X-X-8-| /
6:--X-10-X-X-10--5\----X-8-X-X-8-|/

0:09 - 0:24

1:----------------------------------|\
2:----------------------------------| \  X2
3:----------------------------------|  \  
4:-3/5----10-X-X-10--3/5----8-X-X-8-|  / There is a lot of bass over this riff .
5:-3/5----10-X-X-10--3/5----8-X-X-8-| /
6:-3/5----10-X-X-10--3/5----8-X-X-8-|/

0:24 - 0:32

1:-------------------------------------------------|\
2:-------------------------------------------------| \
3:-------------------------------------------------|  \
4:-5/7---------------10~---3/5--5----3/5--5--X--8~-|  / Something like that.... 
5:-5/7----5h7-X-7-5--10~---3/5--5----3/5--5--X--8~-| /
6:-5/7----5h7-X-7-5--10~---3/5--5----3/5--5--X--8~-|/

0:32 - 0:54

1:-----------------------------------------------------------------------------|\
2:-----------------------------------------------------------------------------| \ X2
3:-----------------------------------------------------------------------------|  \
4:-3/5-5-5--3/5-5-5--3/5-5-3~--7--7/8\7-5--3/5-5-5--3/5-5-5--3/5-5-3~--7--7/8~-|  / Sound good to 
5:-3/5-5-5--3/5-5-5--3/5-5-3~--------------3/5-5-5--3/5-5-5--3/5-5-3~----------| /  me...
6:-3/5-5-5--3/5-5-5--3/5-5-3~--7--7/8\7-5--3/5-5-5--3/5-5-5--3/5-5-3~--7--7/8~-|/

0:54 - 1:04

1:-------------------------------------------|\
2:-------------------------------------------| \ X2
3:-------------------------------------------|  \
4:-------------------------------------------|  / There's a lot of wah, pretty hard to hear
5:-------1~--3p1--3br--1--3b--1---------1----| /  so there can be a few mistake.
6:-3-4-5-------------------------3--3-5---5--|/

1:08 - 1:28

1:----------------------------------|\
2:----------------------------------| \  X3
3:----------------------------------|  \  
4:-3/5----10-X-X-10--3/5----8-X-X-8-|  / There is a lot of bass over this riff .
5:-3/5----10-X-X-10--3/5----8-X-X-8-| /
6:-3/5----10-X-X-10--3/5----8-X-X-8-|/
               

1:28 - 1:36

1:-------------------------------------------------|\
2:-------------------------------------------------| \
3:-------------------------------------------------|  \
4:-5/7---------------10~---3/5--5----3/5--5--X--8~-|  / Something like that.... 
5:-5/7----5h7-X-7-5--10~---3/5--5----3/5--5--X--8~-| /
6:-5/7----5h7-X-7-5--10~---3/5--5----3/5--5--X--8~-|/

1:37 - 1:58

1:-----------------------------------------------------------------------------|\
2:-----------------------------------------------------------------------------| \ X2
3:-----------------------------------------------------------------------------|  \
4:-3/5-5-5--3/5-5-5--3/5-5-3~--7--7/8\7-5--3/5-5-5--3/5-5-5--3/5-5-3~--7--7/8~-|  / Sound good to 
5:-3/5-5-5--3/5-5-5--3/5-5-3~--------------3/5-5-5--3/5-5-5--3/5-5-3~----------| /  me...
6:-3/5-5-5--3/5-5-5--3/5-5-3~--7--7/8\7-5--3/5-5-5--3/5-5-5--3/5-5-3~--7--7/8~-|/

1:58 - 2:09

1:-------------------------------------------|\
2:-------------------------------------------| \ X2
3:-------------------------------------------|  \
4:-------------------------------------------|  / There's a lot of wah, pretty hard to hear
5:-------1~--3p1--3br--1--3b--1---------1----| /  so there can be a few mistake.
6:-3-4-5-------------------------3--3-5---5--|/

2:09 - 2:31

1:----------------------------------------------|\
2:----------------------------------------------| \ X4
3:----------------------------------------------|  \
4:-2--------2~-----2-2-2-2-2--------------------|  / Hard to hear, find the right strumming
5:-----------------------------------2~-1~------| /  this is played during the solo.
6:---2--2-2-----2~-----------2--2-2-------0-1-2~|/
PM   .  . .                  .  .  .

2:31 - 2:37

1:--------------------------------|\
2:--------------------------------| \
3:-----5~-------------------------|  \
4:-----5~------5~--7--7/8\7-5--3/5|  / This is right after the solo...
5:-5-4-3~------5~--------------3/5| /
6:---------7-6-5~--7--7/8\7-5--3/5|/

2:39 - 3:01

1:----------------------------------|\
2:----------------------------------| \  X3
3:----------------------------------|  \  
4:-3/5----10-X-X-10--3/5----8-X-X-8-|  / There is a lot of bass over this riff .
5:-3/5----10-X-X-10--3/5----8-X-X-8-| /
6:-3/5----10-X-X-10--3/5----8-X-X-8-|/

3:02 - 3:08

1:-------------------------------------------------|\
2:-------------------------------------------------| \
3:-------------------------------------------------|  \
4:-5/7---------------10~---3/5--5----3/5--5--X--8~-|  / Something like that.... 
5:-5/7----5h7-X-7-5--10~---3/5--5----3/5--5--X--8~-| /
6:-5/7----5h7-X-7-5--10~---3/5--5----3/5--5--X--8~-|/

3:09 - 3:30

1:-----------------------------------------------------------------------------|\
2:-----------------------------------------------------------------------------| \ X2
3:-----------------------------------------------------------------------------|  \
4:-3/5-5-5--3/5-5-5--3/5-5-3~--7--7/8\7-5--3/5-5-5--3/5-5-5--3/5-5-3~--7--7/8~-|  / Sound good to 
5:-3/5-5-5--3/5-5-5--3/5-5-3~--------------3/5-5-5--3/5-5-5--3/5-5-3~----------| /  me...
6:-3/5-5-5--3/5-5-5--3/5-5-3~--7--7/8\7-5--3/5-5-5--3/5-5-5--3/5-5-3~--7--7/8~-|/

3:31 - 3:41

1:-------------------------------------------|\
2:-------------------------------------------| \ X2
3:-------------------------------------------|  \
4:-------------------------------------------|  / There's a lot of wah, pretty hard to hear
5:-------1~--3p1--3br--1--3b--1---------1----| /  so there can be a few mistake.
6:-3-4-5-------------------------3--3-5---5--|/

3:41 - 4:14

1:-----------------------------------------------------------------------------|\
2:-----------------------------------------------------------------------------| \ X3
3:-----------------------------------------------------------------------------|  \
4:-3/5-5-5--3/5-5-5--3/5-5-3~--7--7/8\7-5--3/5-5-5--3/5-5-5--3/5-5-3~--7--7/8~-|  / Sound good to 
5:-3/5-5-5--3/5-5-5--3/5-5-3~--------------3/5-5-5--3/5-5-5--3/5-5-3~----------| /  me...
6:-3/5-5-5--3/5-5-5--3/5-5-3~--7--7/8\7-5--3/5-5-5--3/5-5-5--3/5-5-3~--7--7/8~-|/

4:14 - 4:27

1:----------------------------------------------------------------------------|\
2:----------------------------------------------------------------------------| \
3:-----------------------------------------------------------------8~~--------|  \
4:-3/5-5-5--3/5-5-5--3/5-5-3~--7--7/8\7-5--3/5-5-5--3/5-5-5--3/5-5-8~~----5\--|  / End of the song
5:-3/5-5-5--3/5-5-5--3/5-5-3~--------------3/5-5-5--3/5-5-5--3/5-5-6~~----5\--| /
6:-3/5-5-5--3/5-5-5--3/5-5-3~--7--7/8\7-5--3/5-5-5--3/5-5-5--3/5-5--------5\--|/



-- Lead --


1:-------------------------------------------------------------------|\
2:-------------------------------------------------------------------| \ 
3:-------------------------------------------------------------------|  \
4:-3h5--5--5--5/7-3--3h5--5---------3h5--5--5--5/7-3--3h5--5---------|  / Add a few deads notes
5:--------------------------3-X-X-3--------------------------1-X-X-1-| /  and a lot of wah and
6:-------------------------------------------------------------------|/   that's 
mostly the wah lead

1:--------------------------------|\
2:--------------------------------| \
3:-7br--5--7b---5--7br-5-X-7b-5---|  \
4:------------------------------7~|  / Something like that, hard to hear, a lot of wah again with
5:--------------------------------| /  extra dead note...
6:--------------------------------|/   '' Is everybody with me? Is everybody coool?... ''


b    = Bend note...
br   = Bend and release note...
\    = Slide down...
/    = Slide up....
~    = Let ring...
X    = Dead/Mute notes...
h/p  = Hammer On/Pull Off...


There can be a few error of transition due to copy/paste (that saved me a lot of time...)
The solo is a bit too hard for me right now.. I play most of it but a lot of part are missing
so i didn't included it in this tabs, sorry...

The lead is repetitive, you can alterne as much as you can, add wah, dead note etc...

That it, hope you like it...


Please comment and rate!


MangeuDePoutine@hotmail.com
Добавлено: 31.07.2012
Другие материалы по этой песне:
  • Аккорды и текст

Страница создана 20.05.2012
http://primanota.ru/corrosion-of-conformity/zippo-chords.htm
Привет, Гость.
Предлагаем пройти революционный курс по гитаре.
Подарок от PrimaNota.Ru, забирай!