PrimaNota.ru - самый крупный в мире бесплатный архив песенных текстов, аккордов, табулатур и нот


Corrosion Of Conformity - Technocracy - текст песни, таба, видео

Регистрация Запомнить меня
Войти через:  Facebook Google Twitter Vk Yandex Mail.ru

Corrosion Of Conformity - Technocracy - текст песни, таба, видео

Печатать
Просмотров: 128
Band- Corrosion Of Conformity
Song- Technocracy

TUNING: Standard Tuning

INTRO:
e |------------------------------------------------------|
B |------------------------------------------------------|
G |-------/9--9---------------7/9--9--9------------------|
D |--2~~--/9--9----------9----7/9--9--9---------9--------|
A |--2~~--/7--7--------8------5/7--7--7-------8----------|
E |--0~~---------8--7-------------------8--7-------------|
  [FADE IN]

VERSE:
e |------------------------------------------------------|
B |------------------------------------------------------|
G |-----9/12-----9/12-----9/12---------------------------|
D |-----9/12-----9/12-----9/12------9\8------------------|
A |-----7/10-----7/10-----7/10------9\8------------------|
E |--0--------0--------0--------0---7\6------------------|

CHORUS:
e |------------------------------------------------------|
B |------------------------------------------------------|
G |--------10\9----7----9--------------------------------|
D |--------10\9----7----9--------------------------------|
A |---------8\7----5----7--------------------------------|
E |--0---------------------------------------------------| x3

e |------------------------------------------------------|
B |------------------------------------------------------|
G |------------------------------------------------------|
D |---------8---5/7--------------------------------------|
A |---------8---5/7--------------------------------------|
E |--0------6---3/5--------------------------------------|

Played after 2nd CHORUS:
e |------------------------------------------------------|
B |------------------------------------------------------|
G |------------------------------------------------------|
D |--7----------------------5----------------------------|
A |--5--7--5----------------3--7--5----------------------|
E |-----5--3---0-0-0-0-0-0-----5--3---2-2-2-2-2-2--------| x2

e |------------------------------------------------------|
B |------------------------------------------------------|
G |------------------------------------------------------|
D |--7---------------------------------------------------|
A |--5--7--5-----------------2--5--4---------------------|
E |-----5--3---0-0-0-0-0-0---0--3--2---2-2-2-2-2-2-------|

e |------------------------------------------------------|
B |------------------------------------------------------|
G |------------------------------------------------------|
D |--5---------------------------------------------------|
A |--3--7---5------------------2--5----------------------|
E |-----5---3---2-2-2-2-2-2----0--3----------------------|

This is played at the “...lock your door..." part,
e |------------------------------------------------------|
B |------------------------------------------------------|
G |------------------------------------------------------|
D |--4-------4--4-------4--4-----------------------------|
A |--4-------4--4-------4--4------1--1h2p1---------------|
E |--2--x-x--2--2--x-x--2--2-----------------------------|

This is played right after that little bass interlude
e |------------------------------------------------------|
B |------------------------------------------------------|
G |------------------------------------------------------|
D |--4---4----5---4--------------------------------------|
A |--4---4----5---4--------------------------------------|
E |--2---2----3---2--------------------------------------|

e |------------------------------------------------------|
B |------------------------------------------------------|
G |------------------------------------------------------|
D |--2---4--5/8----5/7---4-------------------------------|
A |--2---4--5/8----5/7---4-------------------------------|
E |--0---2--3/6----3/5---2---2-2-2-2-2-2-2-2-------------|

e |------------------------------------------------------|
B |------------------------------------------------------|
G |------------------------------------------------------|
D |--7\5---4------------------5---4----------------------|
A |--7\5---4------------------5---4----------------------|
E |--5\3---2---2-2-2-2-2-2----3---2----------------------|

OUTRO:
e |------------------------------------------------------|
B |------------------------------------------------------|
G |--5---4-----------------------9------9----------------|
D |--5---4------5---4---5---4----9------9----------------|
A |--3---2------5---4---5---4----7------7----------------|
E |-------------3---2---3---2-----------0----------------|
Добавлено: 06.06.2012
Другие материалы по этой песне:

Страница создана 06.06.2012
http://primanota.ru/corrosion-of-conformity/technocracy-chords.htm
Привет, Гость.
Предлагаем пройти революционный курс по гитаре.
Подарок от PrimaNota.Ru, забирай!