PrimaNota.ru - самый крупный в мире бесплатный архив песенных текстов, аккордов, табулатур и нот


Corrosion Of Conformity - My Grain - текст песни, таба, видео

Регистрация Запомнить меня
Войти через:  Facebook Google Twitter Vk Yandex Mail.ru

Corrosion Of Conformity - My Grain - текст песни, таба, видео

Печатать
Просмотров: 147
Авторы: Pepper Keenan, Woody Weatherman

Band- Corrosion Of Conformity
Song- My Grain

TUNING: Tune 1 whole step down (D)

INTRO:
d |--------------------------------------------------|
A |--------------------------------------------------|
F |--------------------------------------------------|
C |--------------------------------------------------|
G |-5--6--7------------------------------------------|
D |----------5---------------------------------------|

VERSE:
d |--------------------------------------------------|
A |--------------------------------------------------|
F |--------------------------------------------------|
C |--------------------------------------------------|
G |-5--6--7------------------------------------------|
D |----------5---5h7p5h7p5--3--3--0------------------| Repeat

Before CHORUS:
d |--------------------------------------------------|
A |------3b------------------------------------------|
F |-0--2-----5--2------------------------------------|
C |--------------------------------------------------|
G |--------------------------------------------------|
D |--------------------------------------------------|

CHORUS:
d |--------------------------------------------------|
A |--------------------------------------------------|
F |--------------------------------------------------|
C |--------------------------------------------------|
G |-------5--3--0------------------------------------|
D |-3--5---------------------------------------------| x3

d |--------------------------------------------------|
A |--------------------------------------------------|
F |--7-----------------------------------------------|
C |--7---5-------------------------------------------|
A |--5---5-------------------------------------------|
D |------3-------------------------------------------|

Before 2nd CHORUS:
d |--------------------------------------------------|
A |------3b------------------------------------------|
F |-0--2-----5--2--/5--------------------------------|
C |--------------------------------------------------|
G |--------------------------------------------------|
D |--------------------------------------------------|

After 2nd CHORUS:
The bass part
d |--------------------------------------------------|
A |--------------------------------------------------|
F |---------------7-----10---------------------------|
C |--7-----10-----7-----10---------------------------|
G |--7-----10-----5-----8----------------------------|
D |--5-----8-----------------------------------------|

GUITAR 1:
d |--------------------------------------------------|
A |--------------------------------------------------|
F |---------------7-5--------------------------------|
C |-7--7—7p5---5------7--7-7-7-7p5---5---------------|
G |-----------7---------------------7----------------|
D |--------------------------------------------------| x4

GUITAR 2:
d |------------------10-8----------------------------|
A |-10--10--10_8---8-------10--10-10-10-10p8----8----|
F |--------------9---------------------------10------|
C |--------------------------------------------------|
G |--------------------------------------------------|
D |--------------------------------------------------|
Добавлено: 12.07.2012
Другие материалы по этой песне:
  • Аккорды и текст

Страница создана 12.07.2012
http://primanota.ru/corrosion-of-conformity/my-grain-chords.htm
Привет, Гость.
Предлагаем пройти революционный курс по гитаре.
Подарок от PrimaNota.Ru, забирай!