PrimaNota.ru - самый крупный в мире бесплатный архив песенных текстов, аккордов, табулатур и нот


Corrosion Of Conformity - King Of The Rotten - текст песни, таба, видео

Регистрация Запомнить меня
Войти через:  Facebook Google Twitter Vk Yandex Mail.ru

Corrosion Of Conformity - King Of The Rotten - текст песни, таба, видео

Печатать
Просмотров: 152
Intro

E------------------------------------------------------------|
B------------------------------------------------------------|
G------------------------------------------------------------|
D--/---------------------------------------------------------|   x2
G--/---------------------------------------------------------|
C--/--0-h-2-2-2-2h3p2---0------------------------------------|


Drums kick in (guitar more distortion)

E--------------------------------------------------------|
B--------------------------------------------------------|
G--------------------------------------------------------|
D--------------------------------------------------------|
G----0--h---2-2-2-2h3p2--0-------------------------------|
C----0--h---2-2-2-2h3p2--0-------------------------------|


E--------------------------------------------------------|
B--------------------------------------------------------|
G--------------------------------------------------------|
D--------------------------------------------------------|
G----5-s-8s10s8------------------------------------------|
C----5-s-8s10s8------------------------------------------|

lead bits in the middle

E--------------------------------------------------------|
B--------------------------------------------------------|
G-----------8b-8b-8b-8b----------------------------------|
D------------------------8---6---------------------------|
G----5---------------------------------------------------|
C----5---------------------------------------------------|

E--------------------------------------------------------|
B--------------------------------------------------------|
G------8b-8b-8b-6----------------------------------------|
D---x----------------------------------------------------|
G--------------------------------------------------------|
C--------------------------------------------------------|

E--------------------------------------------------------|
B--------------------------------------------------------|
G--------------------------------------------------------|
D--------------------------------------------------------|
G-----5-s-8s10-------------------------------------------|

C-----5-s-8s10-------------------------------------------

Solo not 100% but nearly
Guitar with wah

E--------------------------------------------------------------------|
B----------------------10-10b-10--13b-12h13p12-10--------------------|
G---8b-8b-8b-6----9-10-----------------------------12b--10h12p10-----|
D--x-----------------------------------------------------------------|
G--------------------------------------------------------------------|
C--------------------------------------------------------------------|


                              Improvise people!
E--------------------------------------------------------|
B--------------------------------------------------------|
G-----------10-------------------------------------------|
D--10h12p10---------------%-----%----------%---%---------|
G--------------------------------------------------------|
C--------------------------------------------------------|

E--------------------------------------------------------|
B--------------------------------------------------------|
G---------------12b-10b-12b-12p10-----------/s10---------|
D---9-8-6-----------------------------10h12p/s10---------|
G----------8---------------------------------------------|
C--------------------------------------------------------|

                                   x3

E----------------------------|--17------------|---20b v----|
B--13b-13b--15b-15b--17b-17b-|-----20-p-17----|------------|
G--15b-15b--17b-17b--19b-19b-|-------------19-|------------|
D----------------------------|----------------|------------|
G----------------------------|----------------|------------|
C----------------------------|----------------|------------|
Добавлено: 12.07.2012
Другие материалы по этой песне:
  • Аккорды и текст

Страница создана 11.06.2012
http://primanota.ru/corrosion-of-conformity/king-of-the-rotten-chords.htm
Привет, Гость.
Предлагаем пройти революционный курс по гитаре.
Подарок от PrimaNota.Ru, забирай!