PrimaNota.ru - самый крупный в мире бесплатный архив песенных текстов, аккордов, табулатур и нот


Corrosion Of Conformity - Heavens Not Overflowing - аккорды и текст, таба, видео

Регистрация Запомнить меня
Войти через:  Facebook Google Twitter Vk Yandex Mail.ru

Corrosion Of Conformity - Heavens Not Overflowing - аккорды и текст, таба, видео

Печатать
Просмотров: 145
Авторы: Pepper Keenan, Woody Weatherman

Heavens Not Overflowing
Corrosion Of Conformity
Author/Artist: Corrosion Of Conformity
Title: Heavens Not Overflowing
Album: Deliverance
Transcribed by: James Rae
Email: chimma@pathcom.com
 
For latest version, check 

-Credit goes to Mike Lackie (71342.3135@compuserve.com) who had
 originally tabbed the verses accurately, and had the chorus about
 75 percent right.

Dropped-D Tuning 

Legend

h - hammer
p - pull off
b - bend up
r - release bend
/ - slide up
 - slide down
v - vibrato
 - trill
t - tap
x - mute/rake
^ - harmonic
. - palm mute
# - strum chord
! - pinch harmonic


 Regular Verse

------------------------------------------------------------------------------
------------------------------------------------------------------------------
------------------------------------------------------------------------------
--12--12--10-12-15--12-12-12--10-12-15--12-12-12--10-12-15--10-10101010-555---
--12--12--10-12-15--12-12-12--10-12-15--12-12-12--10-12-15--10-10101010-555---
--12--12--10-12-15--12-12-12--10-12-15--12-12-12--10-12-15--10-10101010-555---
                                         

 Alternate Verse

------------------------------------------------------------------------------
------------------------------------------------------------------------------
------------------------------------------------------------------------------
--12--12---10-12-15---12-12-12--10-12-15---12-12-12------------------10----5--
--12--12---10-12-15---12-12-12--10-12-15---12-12-12--8--10b12r10--8--10----5--
--12--12---10-12-15---12-12-12--10-12-15---12-12-12------------------10----5--
                                          

 Prechorus Verse

------------------------------------------------------------------------------
------------------------------------------------------------------------------
------------------------------------------------------------------------------
--12--X--12--15--12--X--12--15--12-12-----------------10---------5------------
--12--X--12--15--12--X--12--15--12-12-8--10b12r10--8--10---------5------------
--12--X--12--15--12--X--12--15--12-12-----------------10---------5------------
                                          

 Chorus

------------------------------------------------------------------------------
------------------------------------------------------------------------------
------------------------------------------------------------------------------
--0-----/7-10------0-----7-6--6-6---------------------------------------------
--0-----/7-10------0-----7-6--6-6---------------------------------------------
--0-----/7-10------0-----7-6--6-6---------------------------------------------
                                          

 Post Chorus / Pre Solo

------------------------------------------------------------------------------
------------------------------------------------------------------------------
------------------------------------------------------------------------------
--2-3-----2-1-----------------------------------------------------------------
--2-3-----2-1-----------------------------------------------------------------
--2-3-----2-1-----------------------------------------------------------------
                                          

 First Solo Riff Patterns (use your ears to get timing / order)
 
---------------------|-----------------|--------------------------------------
---------------------|-----------------|--------------------------------------
---------------------|-----------------|--5---5-6-----------------------------
--5--3-5--3-6p5p3----|--------3-6-5-3--|--5---5-6-----------------------------
------------------5--|--5-3-5----------|--3-0-3-4-----------------------------
---------------------|-----------------|--------------------------------------
                                      

------------------|-----------------------------------------------------------
------------------|-----------------------------------------------------------
------------------|-----------------------------------------------------------
------------------|--5-0-5-6--------------------------------------------------
--0---0-3-6-5-3---|--5-0-5-6--------------------------------------------------
----5-------------|--5-0-5-6--------------------------------------------------
                                          

 First Solo
 
--10----------------------------13-----12-----10------------------------------
--13b15--------r13--------------16b18--15b17--13b15---------------------------
--------------------12-10-----------------------------------------------------
--------------------------12--------------------------------------------------
------------------------------------------------------------------------------
------------------------------------------------------------------------------
                                          

--15b17-b17-b17-b17-b17-r15----15b17r15p13------------------------------------
-------------------------------------------15v--------------------------------
------------------------------------------------------------------------------
------------------------------------------------------------------------------
------------------------------------------------------------------------------
------------------------------------------------------------------------------
                                          

-----------------------------------13b15-13v-13-12h13p12-10-------------------
--3----5----6-----13-----8--b9--------------------------------13-10-13-14-----
--5b7--7b9--8b10--15b17--10b12------------------------------------------------
------------------------------------------------------------------------------
------------------------------------------------------------------------------
------------------------------------------------------------------------------
                [a]                                   

--5--------------------------------5------------------------------------------
--8b10-----15b17r15-13-13b15r13----8b10-----15b17r15-13-----------------------
--------------------------------------------------------14--------------------
------------------------------------------------------------------------------
------------------------------------------------------------------------------
------------------------------------------------------------------------------
  [b]                                        

--5--------------------------------5-------------15---------------------------
--8b10-----15b17r15-13-13b15r13----b10-----15b17----15b17---------------------
------------------------------------------------------------------------------
------------------------------------------------------------------------------
------------------------------------------------------------------------------
------------------------------------------------------------------------------
                                          

 Second Solo
 
------------------------------------------------------------------------------
------------------------------------------------------------------------------
--12b14------10-12-10----10---------------------------------------------------
----------------------12----12----------------------------------------------
------------------------------------------------------------------------------
------------------------------------------------------------------------------
                                          

------------------------------------------------------------------------------
------------------------------------------------------------------------------
-------10----10-13-12-10-12-10----10------------------------------------------
--//12----12-------------------12----12-10-12-12vv-b14------------------------
------------------------------------------------------------------------------
------------------------------------------------------------------------------
                                          

------------------------------------------------------------------------------
------------------------------------------------------------------------------
------------------------------------------------------------------------------
--5b7vvvvvvvvvvvvvvv--5-7-7-5b6r5---------------------------------------------
----------------------------------8-5/3---------------------------------------
----------------------------------------6-5-3vv-------------------------------
  [c]                                        

------------------------------------------------------------------------------
----13----------------------------13b15---------------------------------------
----12b14-------------12b13r12-10---------------------------------------------
------------------------------------------------------------------------------
------------------------------------------------------------------------------
--0---------------------------------------------------------------------------
                                          

-------13----13-16-15-13-15-13----13------------------------------------------
--//15----15-------------------15----15-13-15-15vv----------------------------
------------------------------------------------------------------------------
------------------------------------------------------------------------------
------------------------------------------------------------------------------
------------------------------------------------------------------------------
                                          

--12b13r12-10-------------------------------15b16------15b17-15b17------------
--------------10---------------------10-13------------------------------------
-----------------10b11------------10------------------------------------------
-----------------------12v-----12---------------------------------------------
------------------------------------------------------------------------------
------------------------------------------------------------------------------
                                          

--15b17-15b17-15b17------15b17b15-13------------------------------------------
-------------------------------------15---------------------------------------
----------------------------------------14------------------------------------
------------------------------------------------------------------------------
------------------------------------------------------------------------------
------------------------------------------------------------------------------
                                          

------------------------------------------------------------------------------
-----13----13-15--------13----13-13vvvvvv////////-----------------------------
--14----14-----------14----14-------------------------------------------------
------------------------------------------------------------------------------
------------------------------------------------------------------------------
-------------------------------------------------------------
                                       [d]            

 Solo Comments
[a] do a normal unison bend on 8th fret, then, as its ringing, bend the B-string
    up to the 9th fret.  Do this right before the note/bend is done.
[b] these harmony bends are played by a second guitar.  I do them on the high
    strings cause it makes it sound like a different guitar.  But you can play
    them wherever ya want.
[c] bend the hell out of this note.
[d] end with lots of feedback, ringing strings, and sliding your fingers down
    the neck.
Добавлено: 12.08.2013
Другие материалы по этой песне:
  • Аккорды и текст

Страница создана 06.03.2012
http://primanota.ru/corrosion-of-conformity/heavens-not-overflowing-chords.htm
Привет, Гость.
Предлагаем пройти революционный курс по гитаре.
Подарок от PrimaNota.Ru, забирай!