PrimaNota.ru - самый крупный в мире бесплатный архив песенных текстов, аккордов, табулатур и нот


Corrosion Of Conformity - Goodbye Windows - текст песни, таба, видео

Регистрация Запомнить меня
Войти через:  Facebook Google Twitter Vk Yandex Mail.ru

Corrosion Of Conformity - Goodbye Windows - текст песни, таба, видео

Печатать
Просмотров: 173
Уроки эстрадного вокала в Санкт-Петербурге
Авторы музыки: Woody Weatherman
Авторы текста: Pepper Keenan
Band- Corrosion Of Conformity
Song- Goodbye Windows

TUNING: Tune 1 whole step down (D)

INTRO:
d |-----------------------------------------------------|
A |-----------------------------------------------------|
F |-----------------------------------------------------|
C |-----------------------------------------------------|
G |-4h5p4p2-4—4h5p4p2-----------------------------------|
D |--------------------0--------------------------------|

d |-----------------------------------------------------|
A |-----------------------------------------------------|
F |-6---4--6---9---X-X--6---4--6-X-9---9-9--X-X---------|
C |-6---4--6---9---X-X--6---4--6-X-9---9-9--X-X---------|
G |-4---2--4---7---X-X--4---2--4-X-7---7-7--X-X---------|
D |-----------------------------------------------------|

VERSE:
RIFF A:
d |-----------------------------------------------------|
A |-----------------------------------------------------|
F |-6-6h7p6p4--6h7p6p4-3-4-3----------6h7-11-13-13-13b--|
C |--------------------------4-6-4-6--------------------|
G |-----------------------------------------------------|
D |-----------------------------------------------------|

First time RIFF A is played, play this at the end:
d |-----------------------------------------------------|
A |-----------------------------------------------------|
F |-11-13b-11—8h9p8---8\~~------------------------------|
C |-----------------------------------------------------|
G |-----------------------------------------------------|
D |-----------------------------------------------------|

Second time RIFF A is played, follow up with this:
d |-----------------------------------------------------|
A |-11~~------------------------------------------------|
F |-11~~---9—8h9p6\~~-----------------------------------|
C |-----------------------------------------------------|
G |-----------------------------------------------------|
D |-----------------------------------------------------|

CHORUS:
d |-----------------------------------------------------|
A |-----------------------------------------------------|
F |-6---4--6---9---X-X--6---4--6-X-9---9-9--X-X---------|
C |-6---4--6---9---X-X--6---4--6-X-9---9-9--X-X---------|
G |-4---2--4---7---X-X--4---2--4-X-7---7-7--X-X---------|
D |-----------------------------------------------------|

This is played at the “...Your shining son...” part,

d |--------------------X--------------------------------|
A |--------------------X--------------------------------|
F |-6----------6-6--X----X-6----------------------------|
C |-6--5----5\-6-6--X----X-6----------------------------|
G |-4--5----5\-4-4---------4----------------------------|
D |----3----3\------------------------------------------|

After the last CHORUS in the song play this,
d |-----------------------------------------------------|
A |-7---7-7-7--7--7--7--7--7-7-5-5----------------------|
F |-6---6-6-6--6--6--6--6--6-6-4-4----------------------|
C |-4---4-4-4--4--4--4--4--4-4-2-2----------------------|
G |-----------------------------------------------------|
D |-----------------------------------------------------| x3

d |-----------------------------------------------------|
A |-----------------------------------------------------|
F |-----------------------------------------------------|
C |------------7----------------------------------------|
G |-9—9h10p9p7---9-9h10p9p7-----------------------------|
D |--------------------------9\-------------------------|

OUTRO:
d |-----------------------------------------------------|
A |-----------------------------------------------------|
F |-----------------------------------------------------|
C |-----------------------------------------------------|
G |-4h5p4p2-4—4h5p4p2-----------------------------------|
D |--------------------0--------------------------------|


Добавлено: 28.02.2012
Другие материалы по этой песне:
  • Аккорды и текст

Страница создана 28.02.2012
http://primanota.ru/corrosion-of-conformity/goodbye-windows-chords.htm
Привет, Гость.
Предлагаем пройти революционный курс по гитаре.
Подарок от PrimaNota.Ru, забирай!