PrimaNota.ru - самый крупный в мире бесплатный архив песенных текстов, аккордов, табулатур и нот


Corrosion Of Conformity - Doublewide - текст песни, таба, видео

Регистрация Запомнить меня
Войти через:  Facebook Google Twitter Vk Yandex Mail.ru

Corrosion Of Conformity - Doublewide - текст песни, таба, видео

Печатать
Просмотров: 75
Новый альбом группы 'Черный Кузнец' по культовому сериалу 'Сверхъестественное'!
Авторы музыки: Pepper Keenan, Woody Weatherman, Mike Dean, Reed Mullin
Авторы текста: Pepper Keenan
COC often plays in DGCFAD or Drop C, but there is no problem to play that song in E standard. 


[0:00-0:30]

e|---------------------------------------------------------------------------|
B|---------------------------------------------------------------------------|
G|---------------------------------------------------------------------------|
D|--4/7-7-7/9-4-4-4/7-9/4----------------------------------------------------|
A|--2/5-5-5/7-2-2-2/5-7/2----------------------------------------------------|
E|---------------------------------------------------------------------------|


[0:30-0:49]

e|-------------------------<5>-----------------------------------------|
B|----------------------<5>--------------------------------------------|
G|---------------------------------------------------------------------------|
D|---------------------------------------------------------------------------|
A|--5-5-5-5-2-2-2-2------------5-5-5-5-2-2-2-2-------------------------------|
E|--3-3-3-3-0-0-0-0------------3-3-3-3-0-0-0-0-------------------------------|


[0:50-1:00]

e|---------------------------------------------------------------------------|
B|---------------------------------------------------------------------------|
G|---------------------------------------------------------------------------|
D|--4/7-7-7/9-4-4-4/7-9/4----------------------------------------------------|
A|--2/5-5-5/7-2-2-2/5-7/2----------------------------------------------------|
E|---------------------------------------------------------------------------|


[1:00-1:05]

e|---------------------------------------------------------------------------|
B|---------------------------------------------------------------------------|
G|---------------------------------------------------------------------------|
D|---------------------------------------------------------------------------|
A|--7-7-7-6-6-6-5-5-5--------------------------------------------------------|
E|--5-5-5-4-4-4-3-3-3--------------------------------------------------------|

These are all parts in song, there is some lead guitar over there tabbed below


[Lead Parts]


[1:49]

e|---------------------------------------------------------------------------|
B|---------------------------------------------------------------------------|
G|--11h12p11----11h12p11-----------------------------------------------------|
D|-----------9-----------12--12b14r12--12~~----------------------------------|
A|---------------------------------------------------------------------------|
E|---------------------------------------------------------------------------|


[2:38]

e|---------------------------------------------------------------------------|
B|---------------------------------------------------------------------------|
G|---------------------------------------------------------------------------|
D|-------------------11~~----------------------------------------------------|
A|---------------------------------------------------------------------------|
E|---------------------------------------------------------------------------|
          feedback on fret

[3:16]

e|---------------------------------------------------------------------------|
B|----------------------------15-14-10-12-10---------------------------------|
G|---12-11------11------11h12------------------------------------------------|
D|---------12-9----12-9------------------------------------------------------|
A|---------------------------------------------------------------------------|
E|---------------------------------------------------------------------------|


[3:57]

e|---------------------------------------------------------------------------|
B|---------------------------------------------------------------------------|
G|--7---7---11----11---------------------------------------------------------|
D|----9---9----12----12------------------------------------------------------|
A|---------------------------------------------------------------------------|
E|---------------------------------------------------------------------------|



************************************

| h         Hammer-on
| p         Pull-off
| r         Release
| b         Bend
| /         Slide up
| ~         Vibrato
|        Harmonic

************************************
Добавлено: 17.02.2018
Другие материалы по этой песне:
  • Аккорды и текст

Страница создана 18.06.2012
http://primanota.ru/corrosion-of-conformity/doublewide-chords.htm
Привет, Гость.
Предлагаем пройти революционный курс по гитаре.
Подарок от PrimaNota.Ru, забирай!