PrimaNota.ru - самый крупный в мире бесплатный архив песенных текстов, аккордов, табулатур и нот


Corrosion Of Conformity - Broken Man - текст песни, таба, видео

Регистрация Запомнить меня
Войти через:  Facebook Google Twitter Vk Yandex Mail.ru

Corrosion Of Conformity - Broken Man - текст песни, таба, видео

Печатать
Просмотров: 162
Авторы: Pepper Keenan, Reed Mullin

Band- Corrosion Of Conformity
Song- Broken Man

TUNING: Tune 1 whole step down (D)

INTRO/VERSE:
d |-----------------------------------------------------------------|
A |-----------------------------------------------------------------|
F |-----------------------------------------------------------------|
C |------------------9----------------------------------------------|
G |-8--7--5--7--7--5---7--5--7-7--5--8--7--5--7-7-7--8-8--5-5-------|
D |-----------------------------------------------------------------|

CHORUS:
d |-----------------------------------------------------------------|
A |-----------------------------------------------------------------|
F |-----------------------------------------------------------------|
C |-----------------------------------------------------------------|
G |-------------------7---5---5h7-------------------9---7\5/7-------|
D |-5h7-7-7-7-7—5h7---------------5h7-7-7-7-7—5h7-------------------|

BRIDGE: "...Standing tall, they look so small..."
d |-----------------------------------------------------------------|
A |-----------------------------------------------------------------|
F |----------------7--7--5--5--5-5-4-----------------9-9--7-7-5-4---|
C |-5/7-7-7-7-7-2--7--7--5--5--5-5-4--5/7-7-7-7-7-2--9-9--7-7-5-4-5-|
G |-5/7-7-7-7-7-2--5--5--3--3--3-3-2--5/7-7-7-7-7-2--7-7--5-5-3-2-5-|
D |-3/5-5-5-5-5-0---------------------3/5-5-5-5-5-0---------------3-|

BEFORE 3rd VERSE:
d |-----------------------------------------------------------------|
A |-----------------------------------------------------------------|
F |-----------------------------------------------------------------|
C |-7-7---5--7-7---5--7-7---5-7-10-7-7---3--7-7---5--7-7---5-7-12---|
G |-7-7---5--7-7---5--7-7---5-7-10-7-7---5--7-7---5--7-7---5-7-12---|
D |-5-5---3--5-5---3--5-5---3-5-8--5-5---3--5-5---3--5-5---3-5-10---| Repeat

d |-----------------------------------------------------------------|
A |-----------------------------------------------------------------|
F |-----------------------------------------------------------------|
C |-7-7---5--7-7---5--7-7---5-7-10-7-7---5--7-2-5-------------------|
G |-7-7---5--7-7---5--7-7---5-7-10-7-7---5--7-2-5-------------------|
D |-5-5---3--5-5---3--5-5---3-5-8--5-5---3--5-0-3-------------------|

Any questions, comments, or ratings are welcomed. This one was a pain
in the ass to figure out, I'm thinking it could also be played in drop
D tuning. Dabble a bit and let me know if it works out.
Добавлено: 14.05.2012
Другие материалы по этой песне:
  • Аккорды и текст

Страница создана 09.03.2012
http://primanota.ru/corrosion-of-conformity/broken-man-chords.htm
Привет, Гость.
Предлагаем пройти революционный курс по гитаре.
Подарок от PrimaNota.Ru, забирай!