PrimaNota.ru - самый крупный в мире бесплатный архив песенных текстов, аккордов, табулатур и нот


Correatown - Fascination - таба, видео

Регистрация Запомнить меня
Войти через:  Facebook Google Twitter Vk Yandex Mail.ru

Correatown - Fascination - таба, видео

Печатать
Просмотров: 23
Constructive criticism welcome !

TUNING: STANDARD
CAPO  : N/A

RIFFS :
    {                            X                            }{            Y             }
e|-------------------------------------------------------------------------------------------------|
B|-------------------------------------------------------------------------------------------------|
G|-------------------------------------------------------------------------------------------------|
D|----------------------------5----4-----------------------------4--5-5-x--------------------------|
A|---2-2--3-3--x-------------------2--3-3--x---------------------2--3-3-x-3------------------------|
E|--------------2-3-3--x-3--3---3------------2-3-3-x-3--3-3-0---------------3-3-x-3--3-3-0---------|

    {                                              Z                                      }
e|-------------------------------------------------------------------------------------------------|
B|-------------------------------------------------------------------------------------------------|
G|-------------------------------------------------------------------------------------------------|
D|-------------------------------------------------------------------------------------------------|
A|---\10-10-x-10--10-10-x-10---12--x-12--12-x-12---10-10-x-10--10-x-10-----------------------------|
E|---\8--8--x-8---8--8--x-8----10--x-10--10-x-10---8--8--x-8---8--x-8----/5---x-5--5-x-5-----------|

    {                                            W                                              }
e|-------------------------------------------------------------------------------------------------|
B|----------------5------5-------------------5------5------------------5-----5---------------------|
G|------5-----------5------5------5------------5------5------5-----------5-----5------5--------5---|
D|---5-----5--------------------------5--------------------------5------------------------5--------|
A|---3--3--3--3-3------3------3----------3-3------3------3----------3-3----3------3----------3-3---|
E|-------------------------------------------------------------------------------------------------|

X          Y
 Well I was spending my time after dark
          Y                                Y
Fascinated by a lover, that tell-tale heart
                              
Took no advice from my friends
Y
I swear that heart I heard it beat-beating


     Z
Oh I try, oh I try

I try to make it alright
  Z
I try, oh I try

I tried to make it oh alright


          Y
So now I'm spending some time on my own
          Y
Fascinated by the person I've become
Y
Had some long talks with my friends
Y
I've got a lot to figure out it seems 


     Z
Oh I try, oh I try

I try to make it alright
  Z
I try, oh I'll try

I'll try to make it oh alright


W
[Oh oh oh...]


         Y
So now I spend lots of time with my friends
         Y                                        Y
Fascinated by the hours we spend la la la laughing

We've got a lot figured out
Y
I've got a lot, that's what I figured out


        Z
So I'll try, oh I'll try

I'll try to make it alright
     Z
I'll try, oh I'll try

I'll try to make it oh


     Z
I'll try, I try

I'll try to make it alright
     Z
I'll try, oh I'll try

I'll try to make it oh

W [x4]
[Oh oh oh...]
Добавлено: 03.03.2016
Другие материалы по этой песне:
  • Аккорды и текст

Страница создана 03.03.2016
http://primanota.ru/correatown/fascination-chords.htm
Привет, Гость.
Предлагаем пройти революционный курс по гитаре.
Подарок от PrimaNota.Ru, забирай!