PrimaNota.ru - самый крупный в мире бесплатный архив песенных текстов, аккордов, табулатур и нот


Corpsefucking Art - Winnie The Poo - таба, видео

Регистрация Запомнить меня
Войти через:  Facebook Google Twitter Vk Yandex Mail.ru

Corpsefucking Art - Winnie The Poo - таба, видео

Печатать
Просмотров: 110
http://www.myspace.com/corpsefuckingartband

Band: Corpsefucking Art
Album: War Of The Toilet Gear
Song: Winnie The Poo

Written by Corpsefucking Art
Copyright (c) Goregiastic Records, 2005
Version 1.0 - 10/21/2009 - 10/23/2009

Transcribed By: Ryan Kirkhoff
E-Mail: theyshallfeast@yahoo.com

Code:
. - palm mute           x – Staccato
, - slight palm mute    " - tremolo note  
h - hammer on           \ - slide down to 
p - pull off            / - slide up to 
" - tremolo note       <> - Trill
L – left channel only   R – right channel only
* - see comment

	Suffixes for bend:
f - full bend       h - half bend
q - quarter bend    t - tap bend
^ - Hold bend       r - release bend
~ - vibrato bend

	Suffixes for harmonic:
ph - pinched harmonic   n – natural/artificial harmonic

Tuning: 
B E A D F# B

Riff 1: (0:00)
|-----------------------------------------------| 
|-----------------------------------------------| 
|-----------------------------------------------| 
|-7-8------------7-8----------------------------| 
|-5-6--4-3-4-3---5-6--4-3-4-3--4-3-4-5-4--------| 4x
|-5-6--2-1-2-1---5-6--2-1-2-1--2-1-2-3-2--------| 
       . . . .        . . . .  . . . . .

Riff 2: (0:31) 
|---------------------------------------------------| 
|---------------------------------------------------| 
|---------------------------------------------------| 
|---------------------------------------------------| 
|-5"---7"---------------- -5"---7"-----3-4---7"-8"--| 
|---6"---8"--5"-6"-5"-7"-----6"---8"---1-2----------| 
                                       . .
Riff 2: Continued 
|---------------------------------------------------| 
|---------------------------------------------------| 
|---------------------------------------------------|  
|---------------------------------------------------| 
|--------------5"---7"------------------3-4---8"-7"-| 2x
|-5"-6"-5"-7"----6"---8"--5"-6"-5"-7"---1-2---------|
                                        . .
Riff 3: (0:52)
|---------------------------------------------| 
|---------------------------------------------| 
|---------------------------------------------| 
|---------------------------------------------| 
|-4-3-6-3--4-3---4-3-6-3--4-3--4-3-4-5--------| 4x
|----------2-1-----------------2-1-2-3--------|
  . . . .  . .   . . . .  . .  . . . .        

Riff 2: 4x
Riff 3: 4x

Fill
|----------| 
|----------| 
|----------| 
|----------| 
|--2"------| 
|-----3"---| 
   
Riff 4: 
|----------------------------------------------| 
|----------------------------------------------| 
|----------------------------------------------| 
|----------------------------------------------| 
|-4-3-4-5--4-3-4--5-4--4-3-4-5--2"-------------| 4x
|-2-1-2-3--2-1-2--3-2--2-1-2-3-----3"----------| 
  . . . .  . . .  . .  . . . .  

Riff 5:
|-----------------------------------------------| 
|-----------------------------------------------| 
|-----------------------------------------------| 
|-----------------------------------------------| 
|-7"-------8"------7"--------8"---4-3-4---------| 4x
|---6"-5"----7"-6"----6"-5"-------2-1-2---------| 
                                  . . .
Riff 1: 4x

Riff 2: (0:31) 
|---------------------------------------------------| 
|---------------------------------------------------| 
|---------------------------------------------------| 
|---------------------------------------------------| 
|-5"---7"---------------- -5"---7"-----3-4---7"-8"--| 
|---6"---8"--5"-6"-5"-7"-----6"---8"---1-2----------| 
                                       . .
Riff 2: Continued 
|---------------------------------------------------| 
|---------------------------------------------------| 
|---------------------------------------------------|  
|---------------------------------------------------| 
|--------------5"---7"------------------3-4---8"-7"-| 2x
|-5"-6"-5"-7"----6"---8"--5"-6"-5"-7"---1-2---------|
                                        . .
|-----| 
|-----| 
|-----| 
|-----| 
|--2--| 
|--0--| 

End

Any questions or corrections let me know, contact me at: theyshallfeast@yahoo.com

Добавлено: 06.03.2012
Другие материалы по этой песне:
  • Аккорды и текст

Страница создана 06.03.2012
http://primanota.ru/corpsefucking-art/winnie-the-poo-chords.htm
Привет, Гость.
Предлагаем пройти революционный курс по гитаре.
Подарок от PrimaNota.Ru, забирай!