PrimaNota.ru - самый крупный в мире бесплатный архив песенных текстов, аккордов, табулатур и нот


Coroner - Semtex Revolution - текст песни, таба, видео

Регистрация Запомнить меня
Войти через:  Facebook Google Twitter Vk Yandex Mail.ru

Coroner - Semtex Revolution - текст песни, таба, видео

Печатать
Просмотров: 141
Авторы музыки: Tommy T. Baron, Marquis Marky

"Semtex Revolution" by Coroner off of theur 1991 album "Mental Vortex"
-Secruss

Eb tuning



Intro               

|----|
|----|
|----|
|----|
|-4--|
|-2--|



Verse (I think two guitars play this, one with an artificial 
        harmonic on the ending B and one that holds the chord normal)

               |1st, 2nd, 3rd |4th      
|--------------|--------------|-----------|
|--------------|--------------|-----------|
|--------2-----|----2------5--|-2-3-4-----|
|--------2-----|----2------5--|-2-3-4-----|
|-444444-0--444|444-0--444-3--|-0-1-2-----|
|-222222----222|222----222----|-----------|



Intro Bridge (Barred chord, "Cult of Personality" feel sweeping)

0:19            | 1st             | 2nd
|---------------|-----------------|-----------------------|
|---------------|-----------------|-----------------------|
|---------------|-------------5---|-------------5---------|
|---4-----4-----|-------4-------4-|---4-----4---5---------|
|-----3---------|-3-------3-------|-------------3---------|
|-2-----2---2---|---2-2-----2-----|-2---2-2---2-----------|



Pre-Chorus

0:46
|----------------------------|
|----------------------------|
|-0----4----2----5---4-------|
|---2----4----4----4---4-----|
|----------------------------|
|----------------------------|



Chorus (Hand on trigger! Downpicking)

0:54
|------------------------------------------------------|
|------------------------------------------------------|
|------------------------------------------------------|
|------------------------------------------------------|
|-4--4-5-4----4--4-5-4----4--4-5-4---3-3-3--3--3-------|
|-2--2-3-2----2--2-3-2----2--2-3-2---1-1-1--1--1-------|



Bridge to Solo (Part 1) (I serve the revolution...)

1:36  Part 1A                   Part 1B (played underneath)
|---------------------------|----------------------|
|---------------------------|----------------------|
|---------------------------|------0-------0-------|
|---------------------------|----4---4---4---4-----|
|-2---4-5-4---2---4-5-4--5--|--2-------2-----------|
|-0---2-3-2---0---2-3-2--3--|----------------------|



Bridge to Solo (Part 2)

Part 2A
2:10      1st      2nd    
|---------|-------|---------|
|---------|-------|---------|
|---------|-------|---------|
|---------|-------|---------|
|-1h2p1p0-|-------|-5---2---|
|---------|-3-3p0-|-3---0---|



Part 2B
2:20
|---------|-------|-----------|
|---------|-------|-----------|
|---------|-------|-----------|
|---------|-------|-----------|
|-2h3p2p0-|-------|-5---4-----|
|---------|-3-3p2-|-3---2-----|



Solo Rhythm Part 1

2:36
|-------------------------------------------------|
|-------------------------------------------------|
|-------------------------------------------------|
|-------------------------------------------------|
|-2-2222-2222-2222--4-5-4-4444-4444-444444-5------|
|-0-0000-0000-0000--2-3-2-2222-2222-222222-3------|



Solo Rhythm Part 2

2:54                     1st                     2nd
|-----------------------|-----------------------|---------------------------|
|-----------------------|-----------------------|---------------------------|
|-----------------------|-----------------------|---------------------------|
|-----------------------|-----------------------|---------------------------|
|-6-6666-6666-6666-6666-|-4-4444-4444-4444-4444-|-4-4444-4444-7-7777-9-9999-|
|-4-4444-4444-4444-4444-|-2-2222-2222-2222-2222-|-2-2222-2222-5-5555-7-7777-|



Solo 1 Close

3:12 (bend and pull off from the top of the bend)
|-----------------------------------|------------|------------|
|-----------------------------------|------------|------------|
|-----------------------------------|------------|------------|
|-----------------------------------|------------|------------|
|---------1^p0---------1^p0---------|-1^p0-2-1---|-1^p0-6-5-3-|
|-0-0-0-0------0-0-0-0------0-0-0-0-|----------2-|------------|



Solo 2 Rhythm

3:22                 1st     2nd
|-------------------|-------|-----------------|
|-------------------|-------|-----------------|
|-------------------|-------|-----------------|
|-55-55-------77-77-|-------|1010-1010--------|
|-33-33-66-66-55-55-|-66-66-|-8-8--8-8--------|
|-------44-44-------|-44-44-|-----------------|



Lyrics:

They tore me down
They threw me out
They shot my mouth

They enslaved my mind
They blocked my way
Holding me back with
Their stupid game

Hand on trigger
Phantom face
Don't trust no one
Always on the run
Eyes all over
Never safe
Virus like
Merciless

I left the row
Erased myself
Designed my plan

Now I revolt
I just say no
I do reject
And don't let it go

I serve the revolution
In a different way
My thoughts are radical
And I don't hesitate to slay

My way is fast
I hit and run
Won't leave no trace

I'm a sniper
The signs I set
Are painted
In deepest red

From: http://www.darklyrics.com/lyrics/coroner/mentalvortex.html

"Fundamentals of Voluntaryism"
http://voluntaryist.com/fundamentals/introduction.html
Добавлено: 19.08.2013
Другие материалы по этой песне:

Страница создана 21.02.2012
http://primanota.ru/coroner/semtex-revolution-chords.htm
Привет, Гость.
Предлагаем пройти революционный курс по гитаре.
Подарок от PrimaNota.Ru, забирай!