PrimaNota.ru - самый крупный в мире бесплатный архив песенных текстов, аккордов, табулатур и нот


Coroner - Arrogance In Uniform - таба, видео

Регистрация Запомнить меня
Войти через:  Facebook Google Twitter Vk Yandex Mail.ru

Coroner - Arrogance In Uniform - таба, видео

Печатать
Просмотров: 100
Уроки эстрадного вокала в Санкт-Петербурге
Авторы музыки: Tommy Vetterli, Ron Broder
Авторы текста: Marky Edelmann
-------------------------------------------------------------------------------
 CORONER-ARROGANCE IN UNIFORM
-------------------------------------------------------------------------------
Tabbed by:NihilView


Tuning:Standard EADGBE



e|---------------------------------------------------------------------------| INTRO
B|---------------------------------------------------------------------------|
G|-10-9-7-----------9-7------------------7-5-4----------5-4------------------| FIGURE A.
D|--------10-9-7--------10---9-7----------------7-5-4--------7-5-4-----------|
A|--------------------------------10--------------------------------7--------|
E|---------------------------------------------------------------------------|


e|---------------------------------------------------------------------------------------|
B|---------------------------------------------------------------------------------------| FIGURE B.
G|--------------------------------------------------------------------10-9-7-------------|
D|-9------------------9--7--10--9---------------------------7h-9-10-----------10-9-7-----|
A|-7------------------7--5--8---7------------------7h-9-10-------------------------------|
E|----0-0--0-0--0-0----------------0-0--0-0--0-0-----------------------------------------|
   P.M-------------              P.M------------


e|--------------------------------------------------------------------------------|
B|--------------------------------------------------------------------------------| FIGURE C.
G|--------------------------------------------------------------------------------|
D|--9---------------9-7-10-9------------------------------------------------------|
A|--7---------------7-5-8--7-------------------8-p-7-5------------7-5-------------|
E|----0-0-0-0-0-0-------------0-0--0-0--0-0-------------8-p-7-5-------8--7-5-3----|
    P.M.-----------         P.M-------------
                                                     
                                                                    Harm.
e|-------------------------------------------------------------------19------------|
B|---------------------------17-17-17-br-17----------------------------------------|PRE-VERSE
G|---------------------------------------------------------------------------------|
D|-2----------3----3--2-----------------------2---------3---3-2--------------------|
A|-2--2-2-----1----1--2-----------------------2--2-2----1---1-2--------------------|
E|-0--0-0--0----0-----0-----------------------0--0-0--0---0---0--------------------|



e|------------------------------------------------------------------------------------------------|
B|------------------------------------------------------------------------------------------------| VERSE
G|------------------------------------------------------------------------------------------------|
D|---------------------9-------------------------9h10p9---10-9-7----------9-7-----------8-9--11---|
A|-------7----9h10p9--------------7----9h10p9---------------------10-9-7------10-9-7-6--6-7--9----|
E|--0-0---------------------0-0-------------------------------------------------------------------|
  P.M.--                  P.M.---


e|-------------------------------------------------------------------------|
B|-------------------------------------------------------------------------|
G|-------------------------------------------------------------------------| CHORUS
D|------------------------------------------------5-4-2--------------------|
A|-2-2-2-2-2-2---3-2---------2-2-2-2-2--3-2--7----3-2-0--5-4-5-------------|
E|--------------------5-p-3------------------------------3-2-3-------------|



                         Harm..........                       Harm......
e|-------------------------5-------------------------------------------7-------------|
B|----------------------------5--------------------------------------7---------------| INTERLUDE 1.
G|-9-----5-----6----7-----------5------------9----5---6---7--------7-----------------|
D|-9-----5-----7----7--------------7---------9----5---7---7------7-------------------|
A|-7-----3-----4----5-----------------7------7----3---4---5----7---------------------|
E|-0-----------------------------------------0---------------------------------------|


  REPEAT:VERSE
         CHORUS

e|---------------------------------------------------------------------------|
B|---------------------------------------------------------------------------|
G|---------------------------------------------------------------------------| BRIDGE 1.
D|-5-4-2----------5-----------4--------2-4-5--4------------------------------|
A|-3-2-0--5-4-5---3-3-3-3-3---2-2-2-2--0-2-3--2-2-2-2------------------------|
E|--------3-2-3--------------------------------------------------------------|
                 P.M.-------   P.M.---         P.M-----



    T          T          T            T             T            T
eI-----------------------------------------------------------------------------------I
BI--12--8p5---12--8p5-------------------------------10---7p4-----10---7p4------------I TAPPING PART
GI------------------------14---11p7---14---11p7--------------------------------------I not 100% correct
DI-----------------------------------------------------------------------------------I but sounds 
AI-----------------------------------------------------------------------------------I pretty closed
EI-----------------------------------------------------------------------------------I

    T           T            T           T             T         T
eI-----------------------------------------------------------------------------------I
BI-----------------------------------------------------------------------------------I
GI--12---9p5---12---9p5------12--9p5----12---9p5-------14--9p5---14----9p5-----------I
DI-----------------------------------------------------------------------------------I
AI-----------------------------------------------------------------------------------I
EI-----------------------------------------------------------------------------------I

    T            T             T           T
eI-----------------------------------------------------------I
BI--10---7p3----10---7p3------12---7p3----12---7p3-----------I
GI-----------------------------------------------------------I
DI-----------------------------------------------------------I
AI-----------------------------------------------------------I
EI-----------------------------------------------------------I



eI---15-14-12---------------------------------------------------------------------------------I
BI-------------15-14-12-----------------------------------------------------------------------IHARMONY
GI-----------------------14-12-11-------------12-11-9------------12-11-9------------9-vv------I SCALE
DI---------------------------------14-12-11------------12-11-9------------12-11-9-------------I
AI--------------------------------------------------------------------------------------------I
EI--------------------------------------------------------------------------------------------I





eI----------------------------------------------------------------------I
BI----------------------------------------------------------------------I BACK RHYTHM FOR SOLO!
GI----------------------------------------------------------------------I
DI--6-------------------------------------------------------------------I
AI--4-4-4-4-4-4-7--6------------7----------9------------9---------------I
EI--------------5--4-4-4-4-4-4--5-5-5-5-5--6-6-6-6-6-6--7-7-7-7-7-------I



eI---9-7-5---------------------------------------------------I
BI----------9-7-5---9-7-5------------------------------------I HARMONY SCALE AFTER SOLO!
GI-------------------------9-8-6---6-4-----------------------I
DI--------------------------------------7-6-4----------------I
AI---------------------------------------------7-6-4-vv------I
EI-----------------------------------------------------------I


              INTERLUDE 2.
eI--------------------------------------------------------------------------------------------------I
BI--------------------------------------------------------------------------------------------------I
GI--------------------------5-4-------4----------------5-4-------4----------------------------------I
DI-4-----5-------4-5--4-5--------7-5----7-5-4----4-5--------7-5----7-5-4--7-5-4------5-4--------4-5-I
AI-2-2-2-3-3-3-3-2-3--2-3------------------------2-3-----------------------------7--------7-5---2-3-I
EI--------------------------------------------------------------------------------------------------I


AFTER THIS PART REPEAT PLAY:VERSE
                            CHORUS
                            INTRO FIGURE A. FOR ENDING!





************************************

| /   slide up
| \   slide down
| h   hammer-on
| p   pull-off
| vv  vibrato
| Harm. natural harmonics
| P.M. palm muting
| b   Bend
| pb  Pre-bend
| br  Bend release
| pbr Pre-bend release
| T   tapping

************************************
Добавлено: 15.09.2015
Другие материалы по этой песне:

Страница создана 15.09.2015
http://primanota.ru/coroner/arrogance-in-uniform-chords.htm
Привет, Гость.
Предлагаем пройти революционный курс по гитаре.
Подарок от PrimaNota.Ru, забирай!