PrimaNota.ru - самый крупный в мире бесплатный архив песенных текстов, аккордов, табулатур и нот


Cornu - Les Copains Dabord - бас-таба, видео

Регистрация Запомнить меня
Войти через:  Facebook Google Twitter Vk Yandex Mail.ru

Cornu - Les Copains Dabord - бас-таба, видео

Печатать
Просмотров: 57
Авторы музыки: Georges Brassens
Авторы текста: Georges Brassens
---------------------------------------------------------------------------------------------------------------
                                         Cornu - Les copains d'abord
---------------------------------------------------------------------------------------------------------------

Album :  Les Oiseaux De Passage (2001)
Tempo : 159
E-mail: gwendal.mollo@orange.fr
Tabbed by: newg





G ||---------------------------|---------------------------||
D ||o0-----0--0--4--0-----0----|-----0-----0--------0-----o||
A ||o--------------------------|--------------0-----------o||
E ||---------------------------|---------------------------||


||---------------------------|---------------------------||
||o2-----2--2--6--2-----2----|-----2-----2--------2-----o||
||o--------------------------|--------------2-----------o||
||---------------------------|---------------------------||


--------------4-------------|----------------------------|
--5-----5--5-----5-----5----|-----5-----5--4-----5-------|
----------------------------|----------------------------|
----------------------------|----------------------------|


--------------3-------------|----------------------------|
--4-----4--4-----4-----4----|-----4-----4--3-----4-------|
----------------------------|----------------------------|
----------------------------|----------------------------|


----------------------------|----------------------------|
----------------------------|----------------------------|
--2-----x--x--2-----x--5s---|--7-----x--x--7-----x--7----|
----------------------------|----------------------------|


---------------------------------------------------------|
---------------------------------------------------------|
--5---------5--------5--------3-------4------------5L----|
---------------------------------------------------------|


-------|
-------|
--5----|
-------|

Добавлено: 29.07.2015
Другие материалы по этой песне:

Страница создана 29.07.2015
http://primanota.ru/cornu/les-copains-dabord-chords.htm
Привет, Гость.
Предлагаем пройти революционный курс по гитаре.
Подарок от PrimaNota.Ru, забирай!