PrimaNota.ru - самый крупный в мире бесплатный архив песенных текстов, аккордов, табулатур и нот


Cornershop - Candyman - бас-таба, видео

Регистрация Запомнить меня
Войти через:  Facebook Google Twitter Vk Yandex Mail.ru

Cornershop - Candyman - бас-таба, видео

Печатать
Просмотров: 139
Play this riff relativley quickly
standard tuning
^ = bend note up


1 7-10-7-5----------7-|
2 ---------7-5--------|
3 -------------8^-5---|
4 --------------------|

ALTERNATIVLEY

1 ---10-----------------------|
2 12----12--10-------------12-|
3 -------------12-10-8^-------|
4 ----------------------11----|

OR

1 ---13-----------------------|
2 15----15-13--------------15-|
3 ------------15-13-11^-------|
4 ----------------------14----|

All of these are right just choose which depending on how high or low you want to play 
riff. Hope you like my first tab
Добавлено: 29.04.2012
Вам также может быть интересно:
Другие материалы по этой песне:
  • Аккорды и текст

Страница создана 29.04.2012
http://primanota.ru/cornershop/candyman-chords.htm
Привет, Гость.
Предлагаем пройти революционный курс по гитаре.
Подарок от PrimaNota.Ru, забирай!