PrimaNota.ru - самый крупный в мире бесплатный архив песенных текстов, аккордов, табулатур и нот


Corneille - Seul Au Monde - текст песни, таба, видео

Регистрация Запомнить меня
Войти через:  Facebook Google Twitter Vk Yandex Mail.ru

Corneille - Seul Au Monde - текст песни, таба, видео

Печатать
Просмотров: 159
-------------------------------------------------------------------------
SEUL AU MONDE (version acoustique) - Corneille
-------------------------------------------------------------------------
Tabbed by: Kengus

Standard tuning
Capo on first fret!

Some chords:
G#dim7             F*     E*    E7   Amaddb13  G6   Fmaj7sus2  Fmaj7
--x--     --x--  --5--  --4--  --x--  --5--   --0--  --0--     --0--
--3--     --6--  --6--  --5--  --x--  --6--   --0--  --1--     --1--
--4-- and --4--  --5--  --4--  --7--  --5--   --4--  --0--     --2--
--3--     --6--  --7--  --6--  --6--  --7--   --5--  --3--     --3--
--x--     --5--  --8--  --7--  --7--  --7--   --5--  --3--     --3--
--4--     --4--  --x--  --x--  --x--  --5--   --3--  --1--     --1--


INTRO (and most of verse1 and verse2)
   Am11                  G                     F Fsus2 F  F Fsus2 F
e|-------------------------------------------------------------------|
B|-3-3-3-3-3--3-3-3-3-3--3-3-3-3-3--3-3-3-3-3--1-1-1-1-1--1-1-1-1-1--|
G|-5-5-5-5-5--5-5-5-5-5--4-4-4-4-4--4-4-4-4-4--2-2-0-2-2--2-2-0-2-2--|
D|-5-5-5-5-5--5-5-5-5-5--5-5-5-5-5--5-5-5-5-5--3-3-3-3-3--3-3-3-3-3--|
A|-0-0-0-0-0-0----0-0-0----------------------------------------------|
E|-----------------------3-3-3-3-3-3----3-3-3--1-1-1-1-1-1----1-1-1--|
   G
e|---------------------|
B|-3-3-3-3-3--3-3-3-3--|
G|-4-4-4-4-4--4-4-4-4--|
D|-5-5-5-5-5--5-5-5-5--|
A|---------------------|
E|-3-3-3-3-3-3----3-3--|

VERSE1 (play as intro)
Am11
On dit souvent que j'ai l'air d'avoir

Tout pour moi mais c'est sans savoir
G
Des fantômes qui me hantent

Les requiems que je me chante
F          Fsus2         F
Je joue au dur chaque jour qui passe
       F                Fsus2         F
Et les pierres de chaque mur un jour se cassent
G
Je suis peut-être la roche qu'on croit

Mais je suis plus fragile que je veux qu'on voie


VERSE2 (not exactly like intro, but almost)
Am11
Maman m'a dit avant de partir :

Montre jamais tes faiblesses et dans le pire
G
Reste fort ravale tes larmes

Car ta fierté restera ta plus belle arme
Fsus2     F
Donc je sais rire quand il le faut
          Fsus2     F
Mais 'faut pas croire je craque dès qu'on me tourne le dos
G
Je marche droit pour ne pas plier
     G#dim7
D'ailleurs je chante souvent pour ne pas crier

PRE-CHORUS
(Dsus2)Dm                     Cmaj7 
         Quand je pense à la vie
                     Bm7
J'fais face à mes nuits
                    E7*
Chaque jour qui se lève me dit que...


CHORUS
        Am (Amaddb13) Am  (Amaddb13) Am
Je suis seul au monde
                          G   (G6)  G  (G6) G
Y'a rien à faire, je suis seul au monde
                            Fmaj7sus2  Fmaj7  Fmaj7sus2  Fmaj
Je peux plus me taire, je suis seul au monde
           G              Em Em7
Je me sens seul au monde


VERSE3 (mute-strum between the chords)
Am
  J'hais Noël et toutes ses bêtes fêtes
                                                    G-G
De famille et tout ce qui rappelle ma plus belle vie

Je suis jaloux de vous les chanceux

Qui prenez votre chair et votre sang pour acquis
Fmaj7sus2-Fmaj7
         J'ai horreur de votre pitié

Je prends très mal votre générosité
G-G
 Ca fait déjà un bout que je me suffis

C'est pas vrai mais pour être fort c'est ça que je me dis


VERSE4 (increased strumming)
Am-Am
  Quoi qu'il arrive il faut que je reste dans mon rôle (ouais)
          Am-Am          Am-Am-Am
Quoi qu'il arrive il faut pas que je perde mon contrôle (ouais)
  G-G                  G-G-G
Je pense à moi et avoir le reste du monde
                  G-G        G-G-G
Car avec les années je me suis rendu compte
        Fmaj7sus2-Fmaj7...
Que si c'est pas moi ce sera personne

Pas moi ni toi ni personne
G
 Ici-bas c'est chacun pour soi
         G#dim7
Pour les pauvres et fiers solitaires comme moi

PRE-CHORUS
Quand je pense à ma vie
Seul face à mes nuits
Chaque jour qui se lève me dit que...

CHORUS x2

BRIDGE
F*                       E*
   Des fois je trouve l'amour dans les yeux de l'une
F*                       E*
   Des fois je trouve un jour dans les bras de l'autre
F*               E*
   Et à toutes celles qui m'aiment encore,
                         Dm7
Qui m'aiment à tort, qui m'aiment trop fort
                            E7
Je vous dois ma survie, merci encore

Cela n'engage que nous

CHORUS x2

OUTRO                                       
e|----------------------------------------------5---3----0h1--|
B|-3-3-3-3-3--3-3-3-3-3--3-3-3-3-3--3-3-3-3-3---5---3----1----|
G|-5-5-5-5-5--5-5-5-5-5--4-4-4-4-4--4-4-4-4-4---0---4----2----|
D|-5-5-5-5-5--5-5-5-5-5--5-5-5-5-5--5-5-5-5-5---3---2--0------|
A|-0-0-0-0-0-0----0-0-0---------------------------------------|
E|-----------------------3-3-3-3-3-3----3-3-3-----------------|
   
Quoi qu'il arrive       Quoi qu'il arrive
e|-----------5----3--1---------------5----3----0h1----------|
B|-----------5----3--1---------------5----3----1------------|
G|-----------0----4--2---------------0----4----2------------|
D|-----------3----2--0---------------3----2--0--------------|
A|----------------------------------------------------------|
E|----------------------------------------------------------|

Seul au monde, quoi qu'il arrive.
e|---------------------------0--|
B|---------------------------0--|
G|---------------------------5--|
D|---------------------------7--|
A|---------------------------0--|
E|------------------------------|

==================================================================
Добавлено: 18.04.2012
Другие материалы по этой песне:
  • Аккорды и текст

Страница создана 18.04.2012
http://primanota.ru/corneille/seul-au-monde-chords.htm
Привет, Гость.
Предлагаем пройти революционный курс по гитаре.
Подарок от PrimaNota.Ru, забирай!