PrimaNota.ru - самый крупный в мире бесплатный архив песенных текстов, аккордов, табулатур и нот


Corneille - Parce Qu'on Vient De Loin - аккорды и текст, видео

Регистрация Запомнить меня
Войти через:  Facebook Google Twitter Vk Yandex Mail.ru

Corneille - Parce Qu'on Vient De Loin - аккорды и текст, видео

Печатать
Просмотров: 171
Parce Qu'on Vient De Loin
Corneille
Corneille - Parce Qu'on Vient De Loin (Because We Come By Far)
One of the most amazing french song, I've changed some chords, sounds better

Capo #1

INTRO
-2----2----------------------2---------------0------------------|
-2----------------------2----------------------------------2----|
-2-----------------2--------------------0-----------------------|
-4------------4---------------------2----------------2----------|
-2--------2-----------------------------------------------------|
-------------------------------0---------------2----------------|


-------2-----------------2-------------------------7-------5----|
--2-------------------2-----------------------7h8----------5----|
--2---------------2---------------------7------------------6----|
--4------------4--------------------9----------------------7----|
--2---------2-----------------7---------------------------------|
----------------------------------------------------------------|

A		    Bm	         G
    Nous somme nos propres pères
    Em7		          A
Si jeunes et pourtant si vieux
	      Bm  Em7         A
Ca m'fait penser,    tu sais
    		 Bm            G
Nous sommes nos propres mères
   Em7           A
Si jeunes et si sérieux
	        Bm   G   Em7   A
Mais ça va changer
Bm	  G
On passe le temps
	    Em7		          A
A faire des plans pour le lendemain
	    Bm	G
Pendant que le beau temps
Em7			  A
Passe et nous laisse vide et incertain
    Bm	      G	         Em7		               A
On perd trop de temps à suer et s'écorcher les mains
	F#m					  G
A quoi ça sert si on est pas sur de voir demain
     A
A rien

REFRAIN
	    Bm      G			   Em7	A
Alors on vit chaque jour comme le dernier
		Bm		G	         Em7   A
Et vous feriez pareil si seulement vous saviez
        D		    G			Em7  A
Combien de fois la fin du monde nous a frolés
	  Bm	     G		           Em7
Alors on vit chaque jour comme le dernier
A			  Bm	G	Em7	A	Bm	G	Em7	A
Parce qu'on vient de loin            (Pa la pa pa …)

A		Bm	   G
  Et quand les temps sont durs
           Em7		     A                Bm     Em7  A
On se dit pire que « notre histoire n'existe pas »
    Bm     G
Et quand l'hiver perdure
           Em7               A                   Bm
On se dit simplement que la chaleur nous reviendra
         Em7            A
Et c'est facile comme ça
Bm    G
Jour après jour
        Em7                A
On voit combien tout est éphémère
Bm	    G
Alors même en amour
 Em7
J'aimerai chaque reine
      A
Comme si c'était la dernière
Bm        G
L'air est trop lourd
      Em7		        A
Quand on ne vit que sur des prières
    Bm	                       G	       F#m		A
Moi je savoure chaque instant bien avant que s'éteigne la lumière


REFRAIN


 Bm	  G
Jour après jour
 Em					A
On voit combien tout est éphémère
	   Bm						   G
Alors vivons pendant qu'on peut encore le faire
	Aadd9 (Em une case plus bas)
Mes chers


REFRAIN  (X2)
Добавлено: 09.04.2012
Другие материалы по этой песне:

Страница создана 22.02.2012
http://primanota.ru/corneille/parce-quon-vient-de-loin-chords.htm
Привет, Гость.
Предлагаем пройти революционный курс по гитаре.
Подарок от PrimaNota.Ru, забирай!