PrimaNota.ru - самый крупный в мире бесплатный архив песенных текстов, аккордов, табулатур и нот


Corneille - Notre Jour Viendra - аккорды и текст, видео

Регистрация Запомнить меня
Войти через:  Facebook Google Twitter Vk Yandex Mail.ru

Corneille - Notre Jour Viendra - аккорды и текст, видео

Печатать
Просмотров: 146
Notre Jour Viendra
Corneille
-------------------------------------------------------------------------
NOTRE JOUR VIENDRA - Corneille
-------------------------------------------------------------------------
Tabbed by: Kengus

In the intro I put in what the flute plays, the guitar only plays the 
chords. Nothing very difficult about this one, so go play.

Standard tuning

INTRO
   Am    C     G     C  F           G   Dm7    Am    C      G      C
e|-------0-------0h1-0-------------------------------0---0-3/5-3\1-0-----|
B|---1h3---3-1-3--------1-3-0-1---0-1-0----------1h3---1-----------------|
G|-2----------------------------2-------2------2-------------------------|
D|-----------------------------------------------------------------------|
A|-----------------------------------------------------------------------|
E|-----------------------------------------------------------------------|
   Dm  Am    E    A7  Dm  Am    E7  Am
e|-----------------------------------------------------------------------|
B|-2/3-1---0-1-0-1/2--2/3-1---0-1-0--------------------------------------|
G|-------2------------------2-------2------------------------------------|
D|-----------------------------------------------------------------------|
A|-----------------------------------------------------------------------|
E|-----------------------------------------------------------------------|

VERSE1
                    E                    Am
Non, nous ne sommes pas maudits, loin de là
           G                          C              A7
Même qu'on est tous choisis comme les autres, croyez-moi
         Dm                      Am
Et si le ciel a l'air promis aux autres
          B7                           E
On a tellement souffert qu'il nous est dû

PRE-CHORUS
            C                   G
L'heure viendra où nous serons rois
            Am                  E7
Où la terre tournera comme on voudra
         F                         C               Am
Des étrangers nous viendront de partout pour vivre mieux
                Dm                       E7
Des hommes nous serons enfin les moins envieux

Même s'il faut attendre un siècle ou deux

CHORUS
Am         C          G        C
Enfants du bas, notre jour viendra
F                       G       Dm7
Tant qu'on sera, la lumière tiendra
Am         C            G         C
Enfants du bas, il fait bon où on va
Dm  Am        E         A7
Bientôt notre jour viendra
Dm  Am        E7        Am
Bientôt notre jour viendra

VERSE3
                    E                    Am
Non, nous ne sommes pas maudits, loin de là
           G                        C            A7
Même qu'on est tous bénis comme les autres, croyez-moi
             Dm                     Am
Et si chaque bout du monde a eu son règne
          B7                    E
Le nôtre arrive, on en est le début

PRE-CHORUS
            C                  G
L'heure viendra où nous serons rois
            Am                   E7
Où la terre tournera comme on voudra
          F                        C               Am
Des étrangers nous viendront de partout pour vivre mieux
                Dm                         E7
Des hommes nous serons ce qui se trouve de mieux

Même s'il faut attendre un siècle ou deux

CHORUS
Am         C          G        C
Enfants du bas, notre jour viendra
F                       G       Dm7
Tant qu'on sera, la lumière tiendra
Am         C            G         C
Enfants du bas, il fait bon où on va
Dm  Am        E         A7
Bientôt notre jour viendra
Dm  Am        E7        
Bientôt notre jour viendra

INTERLUDE
Am Em7*  Am Em7*  Am Em7*  Am                      Em7* = x79787 

PRE-CHORUS
            C                  G
L'heure viendra où nous serons rois
          Am                  E7
Où la vérité sera comme on l'écrira
          F                        C               Am
Des étrangers nous viendront de partout pour vivre mieux
                Dm                      E7
Des hommes nous serons les préférés des dieux

Ou encore mieux on sera tous heureux

CHORUS (same as before, repeat x2)
Enfants du bas, notre jour viendra
Tant qu'on sera, la lumière tiendra
Enfants du bas, il fait bon où on va
Bientôt notre jour viendra
Bientôt notre jour viendra

OUTRO
Am         C          G        C
Enfants du bas, notre jour viendra
F                       G       Dm7
Tant qu'on sera, la lumière tiendra
Am         C            G         C
Enfants du bas, il fait bon où on va
Dm  Am        E        A7
Bientôt notre jour viendra
Dm      Am  E7  F7M  
Bientôt...

Am Em7*  Am Em7*  Am Em7*  Am  Em7*... (repeat until end)

(the song ends with three harmonic notes)

e|------5+--12+----|
B|---5+------------|
G|-----------------|
D|-----------------|
A|-----------------|
E|-----------------|

========================================================================
Comment, rate, appreciate!
Добавлено: 07.03.2012
Другие материалы по этой песне:
  • Аккорды и текст

Страница создана 27.02.2012
http://primanota.ru/corneille/notre-jour-viendra-chords.htm
Привет, Гость.
Предлагаем пройти революционный курс по гитаре.
Подарок от PrimaNota.Ru, забирай!